PrimaNota.ru - самый крупный в мире бесплатный архив песенных текстов, аккордов, табулатур и нот


Rastafeeling - Filhos De Jah - бас-таба, видео

Регистрация Запомнить меня
Войти через:  Facebook Google Twitter Vk Yandex Mail.ru

Rastafeeling - Filhos De Jah - бас-таба, видео

Печатать
Просмотров: 180
-------------------------------------------------------------------------------
                             Filhos de Jah - Rastafeeling
-------------------------------------------------------------------------------
Tabbed by: Paulo Augusto Nino
E-mail: paulo-augsuto992@hotmail.com

So guys, this is a brazilian song from a brazilian band called Rastafeeling, from Rio Grande do Norte.
Really a great band. 

Tuning:E A D G

INTRO

G|---------------------------------------------------------------------------|
D|----4---------------------4444/0\------------------------------------------|
A|-------5--4---------4--5---------------------------------------------------|
E|-------------4-------------------------------------------------------------|

VERSE 1

G|---------------------------------------------------------------------------|
D|------4---4----------------------------------------------------------------|
A|------------4---4---------------------------------------------0-0-4--------|
E|---------------------5-4-2--2-4-5---0-0-4-----0-0-2-4-4-0------------------|

G|---------------------------------------------------------------------------|
D|---------------------------------------------------------------------------|
A|---0-0-2-4-4-0----4-4-----2--4-4-------------------------------------------|
E|----------------------4-4--------5-----------------------------------------|

VERSE 2

G|-----6--6----------------------4--4----------------------------------------|
D|----------6--6----------------------4--4-----------------------------------|
A|---------------7-6-4--4-6-7--4-----------5-4-2--2-4-5---4------------------|
E|---------------------------------------------------------------------------|

PRE-CHORUS
G|---------------------------------------------77-66-------------------------|
D|---------------77-66----------4--4-7-7-4-4-------77-66---------------------|
A|--4--4-7-7-4-4-------77-66-------------------------------------------------|
E|---------------------------------------------------------------------------|


CHORUS
G|---------------66-44-------------------------------------------------------|
D|---4--67-4-6-6--------4--67-4----------------------------------------------|
A|------------------------------66--44--22-----------------------------------|
E|---------------------------------------------------------------------------|



| /  slide up
| \  slide down
| h  hammer-on
| p  pull-off
| ~  vibrato
| +  harmonic
| x  Mute note
===============================================================================
Добавлено: 16.08.2015
Другие материалы по этой песне:
  • Аккорды и текст

Страница создана 16.08.2015
http://primanota.ru/rastafeeling/filhos-de-jah-chords.htm
Привет, Гость.
Предлагаем пройти революционный курс по гитаре.
Подарок от PrimaNota.Ru, забирай!