PrimaNota.ru - самый крупный в мире бесплатный архив песенных текстов, аккордов, табулатур и нот


Рассказова Евгения - Как мало для счастья надо - аккорды и текст, видео

Регистрация Запомнить меня
Войти через:  Facebook Google Twitter Vk Yandex Mail.ru

Рассказова Евгения - Как мало для счастья надо - аккорды и текст, видео

Печатать
Просмотров: 283
Как мало для счастья надо
Рассказова Евгения
Вступление
-------------------------------------------------------------------------
----12-13-12-10-12----12-13-12-10-12----12~~~-----------
-7-----------------------------------------------------------------------
-------------------------------------------------------------------------
-------------------------------------------------------------------------
-------------------------------------------------------------------------

Куплет Em   Am   H7   Em
           Em   Am  |Am6 H7|

Припев Em Am C H7
           Em C Am |Am6H7|

После 1 куплета
-------------------------------------------------------------------------
-12~--10-12-10-8~--дальше как вст-------------------------
-------------------------------------------------------------------------
-------------------------------------------------------------------------
-------------------------------------------------------------------------
-------------------------------------------------------------------------

Соло
--------------------------------------------------------------------------------------------------------
-10-10-8--------8~-----------------------------10-10~----------10-10-------------------------
-------------7----7~-----7~-12-11~--11-12------------11-12----------12-11-12------------
--------------------------------------------------------------------------------------------------------
--------------------------------------------------------------------------------------------------------
--------------------------------------------------------------------------------------------------------

-------------------------------------------------------------------------
----------------------------------------10-10~--12~~~~----------
-7~------7-11-12-11~--11-12-------------------------------------
-------------------------------------------------------------------------
-------------------------------------------------------------------------
-------------------------------------------------------------------------

Текст песни в сети не нашёл, печатать лень)))
Добавлено: 30.08.2014
Другие материалы по этой песне:
  • Аккорды и текст

Страница создана 30.08.2014
http://primanota.ru/rasskazova-evgeniya/kak-malo-dlya-schastya-nado-chords.htm
Привет, Гость.
Предлагаем пройти революционный курс по гитаре.
Подарок от PrimaNota.Ru, забирай!