PrimaNota.ru - самый крупный в мире бесплатный архив песенных текстов, аккордов, табулатур и нот


Rasputina - High On Life - текст песни, таба, видео

Регистрация Запомнить меня
Войти через:  Facebook Google Twitter Vk Yandex Mail.ru

Rasputina - High On Life - текст песни, таба, видео

Печатать
Просмотров: 134
Уроки эстрадного вокала в Санкт-Петербурге
-----------------------------------------------------------------------------
                             HIGH ON LIFE - Rasputina
-----------------------------------------------------------------------------
Tabbed by: joe
E-mail: joeghartman@verizon.net

Tuning: Drop D
This is transcribed for the guitar


Intro / Verse: (I use clean, blues, and then distortion for the chorus)
e|--------------------------------------------------------------------------|
B|--------------------------------------------------------------------------|
G|--------------------------------------------------------------------------|
D|--------------------------------------------------------------------------|
A|--------------------------------------------------------------------------|
D|-0-1-3-3-1-3-3-3-1-1-0-1-3-3/6---3-3-1-3-3-3-1-1-0-1-3-3/6----------------|

e|--------------------------------------------------------------------------|
B|--------------------------------------------------------------------------|
G|--------------------------------------------------------------------------|
D|--------------------------------------------------------------------------|
A|-------------------------------3-3-1-3-3-3-1-1-0-1-3-3/6------------------|
D|-3-3-1-3-3-3-1-1-0-1-3-3/6-----3-3-1-3-3-3-1-1-0-1-3-3/6------------------|

Pre- Chorus(not 100% sure):
e|--------------------------------------------------------------------------|
B|--------------------------------------------------------------------------|
G|--------------------------------------------------------------------------|
D|-8-8-888--7-6-6-4---------------------------------------------------------|
A|-8-8-888--7-6-6-4---------------------------------------------------------|
D|-8-8-888--7-6-6-4---------------------------------------------------------|


Chorus:  (Guitar 1 is the same as the verse)

Guitar 2
e|--------------------------------------------------------------------------|
B|--------------------------------------------------------------------------|
G|-13-13-10--13-13-10--13-10--12--12-10-12-10-13-12-10-10-------------------|
D|--------------------------------------------------------------------------|
A|--------------------------------------------------------------------------|
D|--------------------------------------------------------------------------|

Verse

2nd Pre-Chorus (Again, not 100% sure because it's so quick)
e|--------------------------------------------------------------------------|
B|--------------------------------------------------------------------------|
G|-5-5-5-55---8-8---10-10--10-10--------------------------------------------|
D|-5-5-5-55---8-8---10-10--10-10--------------------------------------------|
A|-3-3-3-33---6-6---8--8---8--8---------------------------------------------|
D|--------------------------------------------------------------------------|

Solo:
e|--------------------------------------------------------------------------|
B|--------------------------------------------------------------------------|
G|--------------------------------------------------------------------------|
D|--------------------------------------------------------------------------|
A|--------------------------------------------------------------------------|
D|-0-0-1-3-6-3---0-1-3--6--8-8-6-8-10-8-6-6-0-1-3-3-6-3-0-1-3-6-8-8-10-8-6--|

e|--------------------------------------------------------------------------|
B|--------------------------------------------------------------------------|
G|--------------------------------------------------------------------------|
D|--------------------------------------------------------------------------|
A|--------------------------------------------------------------------------|
D|-13-15-15-----------------------------------------------------------------|


Chorus



************************************

| /   slide up
| \   slide down
| h   hammer-on
| p   pull-off
| ~   vibrato
| +   harmonic
| x   Mute note
| b   Bend
| pb  Pre-bend
| br  Bend release
| pbr Pre-bend release
| brb Bend release bend

************************************
Добавлено: 19.12.2013
Другие материалы по этой песне:
  • Аккорды и текст

Страница создана 13.04.2012
http://primanota.ru/rasputina/high-on-life-chords.htm
Привет, Гость.
Предлагаем пройти революционный курс по гитаре.
Подарок от PrimaNota.Ru, забирай!