PrimaNota.ru - самый крупный в мире бесплатный архив песенных текстов, аккордов, табулатур и нот


Raspberries - Hands On You - аккорды и текст, таба, видео

Регистрация Запомнить меня
Войти через:  Facebook Google Twitter Vk Yandex Mail.ru

Raspberries - Hands On You - аккорды и текст, таба, видео

Печатать
Просмотров: 103
Hands On You
Raspberries
		   "Hands on You"
                     (Wally Bryson - Scott McCarl)

Intro (acoustic guitars, 3X):

	 E                   A       Asus2 D A
	 / / / /   / / / /   / / / /   / / / /

Verse 1:

	E                    A           Asus2   D A
	How I wish I had my hands on you
	E                       A           Asus2   D A
	Always want to have my hands on you
	E                           A           Asus2   D A
	Just can't wait to have my hands on you
	 Bm7                             B7
	Bring your friend, she's welcome too

Guitar solo (chord voicings listed below):

	 E       E7M         E7      E7M  
	 / / / /   / / / /   / / / /   / / / /

	Am       Am/maj7    Am7      Am/maj7
	 / / / /   / / / /   / / / /   / / / /

	B7sus4     B7        Bm7       B7
	 / / / /   / / / /   / / / /   / / / /

	Bm7                  B7
	 / / / /   / / / /   / / / /   / / / /
	                         (everybody!)

Verse 2:

	Here we go, I got my hands on you
	Take it slow, I got my hands on you
	Down below, I got my hands on you
	Where's your friend, I want her too

Tag:

	 E                F#7              F7M  
	 v   v   v   v     v   v   v   v     v   v   v   v
	-4-----4---------|-4-----4---------|-4-----4---------
	---5-------5-----|---5-------5-----|---5-------5-----
	-----7-------7---|-----6-------6---|-----5-------5---
	-----------------|-----------------|-----------------
	-----------------|-----------------|-----------------
	-----------------|-----------------|-----------------

	 E                F#7              F7M  
	 v   v   v   v     v   v   v   v     v   v   v   v
	-4-----4---------|-4-----4---------|-4-----4---------
	---5-------5-----|---5-------5-----|---5-------5-----
	-----4-------4---|-----3-------3---|-----2-------2---
	-----------------|-----------------|-----------------
	-----------------|-----------------|-----------------
	-----------------|-----------------|-----------------

	 E                       E7/6*
	 v   v   v   v     v   v   v   v
	---4-2---4-2---4-|-2---0---0-------
	-------0-----0---|-----0--3/2------
	-----------------|-----1---1-------
	-----------------|---------2-------
	-----------------|---------2-------
	-----------------|---------0-------

	                           * guitar 1: E7; guitar 2: E6

	Rhythm guitar chord voicings:

		Am/maj7 x02110
		Am7	x02010
		B7	021202
		B7sus4	022202
		Bm7	020202
		E6	022120
		E7	022130
		E7M  	022140
		F#7	xx4320
		F7M  	xx3210


-- another ace 70's tab from Andrew Rogers     
Добавлено: 25.06.2013
Другие материалы по этой песне:
  • Аккорды и текст

Страница создана 28.07.2012
http://primanota.ru/raspberries/hands-on-you-chords.htm
Привет, Гость.
Предлагаем пройти революционный курс по гитаре.
Подарок от PrimaNota.Ru, забирай!