PrimaNota.ru - самый крупный в мире бесплатный архив песенных текстов, аккордов, табулатур и нот


Raspberries - Go all the way ii - таба, видео

Регистрация Запомнить меня
Войти через:  Facebook Google Twitter Vk Yandex Mail.ru

Raspberries - Go all the way ii - таба, видео

Печатать
Просмотров: 74


-------------------------------------------------------------------------------
			     SONG NAME - Go all the way(2)
-------------------------------------------------------------------------------
Tabbed by:S Ganley
Email:Ganley3@comcast.net

Tuning:Standard

e|---------------------------------------------------------------------------|
B|------------------------5--5------5-------------------------------------|
G|---7--5--7----------7---5--5------5-----------------------------------------|
D|---5--5--5----------5----------------------------------------------------------|
A|------------x-x-x-x-----------------------------------------------------------|
E|---------------------------------------------------------------------------|



e|---------------------------------------------------------------------------|
B|-------------------------------5--5------------------------------------------|
G|--------2-----2-----------7----5--5----------------------------------------|
D|--------2--4--2--4--------5-----------------------------------------------------|
A|---3h4------------------------------------------------------------------------|
E|---------------------------------------------------------------------------|



e|---------------------------------------------------------------------------|
B|--------------------------6-------------------------------------------------|
G|-------2-------2----------4---------------------------------------------------|
D|-------2---4---2---4-----------------------------------------------------------|
A|---3h4------------------------------------------------------------------------|
E|---------------------------------------------------------------------------|



e|---------------------------------------------------------------------------|
B|---------------------------------------------------------------------------|
G|---------------------------------------------------------------------------|
D|---------------------------------------------------------------------------|
A|---------------------------------------------------------------------------|
E|---------------------------------------------------------------------------|



e|---------------------------------------------------------------------------|
B|---------------------------------------------------------------------------|
G|---------------------------------------------------------------------------|
D|---------------------------------------------------------------------------|
A|---------------------------------------------------------------------------|
E|---------------------------------------------------------------------------|



e|---------------------------------------------------------------------------|
B|---------------------------------------------------------------------------|
G|---------------------------------------------------------------------------|
D|---------------------------------------------------------------------------|
A|---------------------------------------------------------------------------|
E|---------------------------------------------------------------------------|



e|---------------------------------------------------------------------------|
B|---------------------------------------------------------------------------|
G|---------------------------------------------------------------------------|
D|---------------------------------------------------------------------------|
A|---------------------------------------------------------------------------|
E|---------------------------------------------------------------------------|



e|---------------------------------------------------------------------------|
B|---------------------------------------------------------------------------|
G|---------------------------------------------------------------------------|
D|---------------------------------------------------------------------------|
A|---------------------------------------------------------------------------|
E|---------------------------------------------------------------------------|


| /  slide up
|   slide down
| h  hammer-on
| p  pull-off
| ~  vibrato
| +  harmonic
| x  Mute note
===============================================================================




Добавлено: 09.12.2013
Другие материалы по этой песне:
  • Аккорды и текст

Страница создана 09.12.2013
http://primanota.ru/raspberries/go-all-the-way-ii-chords.htm
Привет, Гость.
Предлагаем пройти революционный курс по гитаре.
Подарок от PrimaNota.Ru, забирай!