PrimaNota.ru - самый крупный в мире бесплатный архив песенных текстов, аккордов, табулатур и нот


Rasmus - The Fight - текст песни, таба, видео

Регистрация Запомнить меня
Войти через:  Facebook Google Twitter Vk Yandex Mail.ru

Rasmus - The Fight - текст песни, таба, видео

Печатать
Просмотров: 254
-------------------------------------------------------------------------------
                             THE FIGHT - The Rasmus
-------------------------------------------------------------------------------
Tabbed by: Mono
Email: bowdowntothemono@hotmail.co.uk

Tuning: Standard (EADGBe)

Intro/Verse (All palm muted):
e|---------------------------------------------------------------|
B|---------------------------------------------------------------|
G|-----------------------------------------444222----------------|
D|-10-x12-4-x12-9-x12-2-x12-1-x12-4-x12-222------111222----------|
A|-----------------------------------------------------222-------|
E|--------------------------------------------------------333222-|

Just before the chorus, you play this instead of the last bit of the verse:
e|-----|
B|-----|
G|-9~--|
D|-9~--|
A|-7~--|
E|-0~--|

Chorus:
e|---------------------------------------------------|
B|---------------------------------------------------|
G|-9999-7777-5555------9999-7777-5555----------------|
D|-9999-7777-5555-5555-9999-7777-5555-555-444--------|
A|-7777-5555-3333-5555-7777-5555-3333-555-444--------|
E|----------------3333----------------333-222-3p2p0--|
                                      ..  ..
Chorus contd:
e|---------------------------------------------------------|
B|---------------------------------------------------------|
G|-9999-7777-5555------------4~----9~-----------4~----9~---|
D|-9999-7777-5555-5555-7-----4~----9~----7~-----4~----9~---|
A|-7777-5555-3333-5555-7-----2~----7~----7~-----2~----7~---|
E|----------------3333-5~----------------5~----------------|

Repeat intro and verse

Chorus 2:
e|---------------------------------------------------|
B|---------------------------------------------------|
G|-9999-7777-5555------9999-7777-5555----------------|
D|-9999-7777-5555-5555-9999-7777-5555-555-444--------|
A|-7777-5555-3333-5555-7777-5555-3333-555-444--------|
E|----------------3333----------------333-222-3p2p0--|
                                      ..  ..
Chorus 2 contd:
e|----------------------------------------------------------------|
B|----------------------------------------------------------------|
G|-9999-7777-5555----------4~--9~-----------------------------4~--|
D|-9999-7777-5555-5555-7---4~--9~--------7-9-10-9-7------7~---4~--|
A|-7777-5555-3333-5555-7---2~--7~-7-9-10------------10-9-7~---2~--|
E|----------------3333-5~--------------------------------5~-------|
                                  . . .  . . .  . . .  .

Bridge:
e|-------------------------------|
B|-------------------------------|
G|-------------------------------|
D|-222222222----9b-222222222-----|
A|-222222222-x4-7b-222222222-x4--|
E|-000000000-------000000000-----|
   .........       .........

Strings and Vocals Bridge

Bridge part 2:
e|-----------------------------------------------------------|
B|-----------------------------------------------------------|
G|-11111111-9999-7777------11111111-9999-7777----------------|
D|-11111111-9999-7777-7777-11111111-9999-7777-777-666--------|
A|-9-9-9-9--7777-5555-7777-9-9-9-9--7777-5555-777-666--------|
E|--------------------5555--------------------555-444-5p4p2--|
                                              ..  ..

Final Chorus:
e|----------------------------------------------------------------|
B|----------------------------------------------------------------|
G|-11111111-9999-7777---------6--11~----666666666666666666666666--|
D|-11111111-9999-7777-7777-9~-6~-11~-9~-666666666666666666666666--|
A|-9-9-9-9--7777-5555-7777-9~-4~-9~--9~-444444444444444444444444--|
E|--------------------5555-7~--------7~---------------------------|
                                                   .............

Outro:
e|--------------|
B|--------------|
G|--------------|
D|-444444444----|
A|-444444444-x8-|
E|-222222222----|
   .........

| .  palm mute
| /  slide up
| \  slide down
| h  hammer-on
| p  pull-off
| ~  vibrato
| +  harmonic
| x  Mute note
===============================================================================
Добавлено: 07.03.2012
Другие материалы по этой песне:
  • Аккорды и текст

Страница создана 07.03.2012
http://primanota.ru/rasmus/the-fight-chords.htm
Привет, Гость.
Предлагаем пройти революционный курс по гитаре.
Подарок от PrimaNota.Ru, забирай!