PrimaNota.ru - самый крупный в мире бесплатный архив песенных текстов, аккордов, табулатур и нот


Rasmus - In the shadows1 - таба, видео

Регистрация Запомнить меня
Войти через:  Facebook Google Twitter Vk Yandex Mail.ru

Rasmus - In the shadows1 - таба, видео

Печатать
Просмотров: 246


INTRO:
e|----------|-----------|----------|-------|
B|----------|-----------|----------|-------|
G|----------|-----------|----------|-------|
D|----------|-----------|----------|-------|
A|5-5-575-4-|----------0|2-4-555-4-|-------|
E|---------5|2-2-220-2--|---------5|22-44-5|
        OH  OH ...
INTRO 2:
e|-----------|-----------|-----------|-----------|
B|-----------|-----------|-----------|-----------|
G|7-7-777-6--|-----------|4-6-777-6--|--------6--|
D|7-7-777-6-7|4-4-44--4-2|4-6-777-6-7|4-6-777-6-7|
A|5-5-555-4-7|4-4-44--4-0|2-4-555-4-7|4-6-777-4-7|
E|----------5|2-2-220-2--|----------5|2-4-555---5|

e|-----------|-----------|-----------|---------|
B|-----------|-----------|-----------|---------|
G|7-7-777-6--|-----------|4-6-777-6--|---------|
D|7-7-777-6-7|4-4-44--4-2|4-6-777-6-7|4-4-444-4|
A|5-5-555-4-7|4-4-44--4-0|2-4-555-4-7|4-4-444-4|
E|----------5|2-2-220-2--|----------5|2-2-222-2|

VERSE:
e|-----------------------------------------------
B|-----------------------------------------------
G|-----------------------------------------------
D|4-4-4-4---------4-4-4-4---------4-4-4-4--------
A|2-2-2-2-4-4-4-4-2-2-2-2-4-4-4-4-2-2-2-2-4-4-4-4
E|--------2-2-2-2---------2-2-2-2---------2-2-2-2

e|-----------------------------------------------
B|-----------------------------------------------
G|-----------------------------------------------
D|4-4-4-4---------7-7-7-7---------4-4-4-4--------
A|2-2-2-2-4-4-4-4-5-5-5-5-4-4-4-4-2-2-2-2-4-4-4-4
E|--------2-2-2-2---------2-2-2-2---------2-2-2-2

e|-----------------------|-----|
B|-----------------------|-----|
G|-----------------------|-----|
D|7-7-7-7---------4-4-4-4|7-6-4|
A|5-5-5-5-4-4-4-4-2-2-2-2|7-6-4|
E|--------2-2-2-2--------|5-4-2|
      I'VE BEEN WATCHIN...
CHORUS:
e|------------------------------------------------
B|------------------------------------------------
G|7-------------4-------------7-------------4-----
D|7-ring-4------4-ring-4------7-ring-4-ring-4-ring
A|5------4-ring-2------4-ring-5------4------2-----
E|-------2-------------2-------------2------------

e|------|
B|------|
G|------|
D|4-----|
A|4-ring|
E|2-----|

BRIDGE:
e|-----------|-----------|-----------|-----------|
B|-----------|-----------|-----------|-----------|
G|7-7-777-6--|-----------|4-6-777-6--|--------6--|
D|7-7-777-6-7|4-4-44--4-2|4-6-777-6-7|4-6-777-6-7|
A|5-5-555-4-7|4-4-44--4-0|2-4-555-4-7|4-6-777-4-7|
E|----------5|2-2-220-2--|----------5|2-4-555---5|

e|-----------|-----------|-----------|-----------|
B|-----------|-----------|-----------|-----------|
G|7-7-777-6--|-----------|4-6-777-6--|-----------|
D|7-7-777-6-7|4-4-44--4-2|4-6-777-6-7|44-66-7----|
A|5-5-555-4-7|4-4-44--4-0|2-4-555-4-7|44-66-7-ring
E|----------5|2-2-220-2--|----------5|22-44-5----|

VERSE 2:
e|-----------------------------------------------
B|-----------------------------------------------
G|-----------------------------------------------
D|4-4-4-4---------4-4-4-4---------4-4-4-4--------
A|2-2-2-2-4-4-4-4-2-2-2-2-4-4-4-4-2-2-2-2-4-4-4-4
E|--------2-2-2-2---------2-2-2-2---------2-2-2-2

e|-----------------------------------------------
B|-----------------------------------------------
G|-----------------------------------------------
D|4-4-4-4---------7-7-7-7---------4-4-4-4--------
A|2-2-2-2-4-4-4-4-5-5-5-5-4-4-4-4-2-2-2-2-4-4-4-4
E|--------2-2-2-2---------2-2-2-2---------2-2-2-2

e|-----------------------|-----|
B|-----------------------|-----|
G|-----------------------|-----|
D|7-7-7-7---------4-4-4-4|7-6-4|
A|5-5-5-5-4-4-4-4-2-2-2-2|7-6-4|
E|--------2-2-2-2--------|5-4-2|
      I'VE BEEN WATCHIN...
CHORUS:
e|------------------------------------------------
B|------------------------------------------------
G|7-------------4-------------7-------------4-----
D|7-ring-4------4-ring-4------7-ring-4-ring-4-ring
A|5------4-ring-2------4-ring-5------4------2-----
E|-------2-------------2-------------2------------

e|------|
B|------|
G|------|
D|4-----|
A|4-ring|
E|2-----|

I DONT KNOW WHAT TO CALL THIS PART:
LATELY I'VE BEEN WALKIN...
e|-----------------------------------------------
B|-----------------------------------------------
G|-----------------------------------------------
D|7-7-7-7-7-7-7-7-----------------4-4-4-4-4-4-4-4
A|5-5-5-5-5-5-5-5-4-4-4-4-4-4-4-4-2-2-2-2-2-2-2-2
E|----------------2-2-2-2-2-2-2-2----------------

e|-------|-----|
B|-------|-----|
G|-------|-----|
D|-------|4-3-2|
A|4-4-4-4|4-3-2| 
E|2-2-2-2|2-1-0|
(1),(2),(3)
I'VE BEEN WATCHIN....

CHORUS:
e|------------------------------------------------
B|------------------------------------------------
G|7-------------4-------------7-------------4-----
D|7-ring-4------4-ring-4------7-ring-4-ring-4-ring
A|5------4-ring-2------4-ring-5------4------2-----
E|-------2-------------2-------------2------------

e|-----------------|
B|-----------------|
G|---------66-7----|
D|44-66-77-66-7-ring
A|44-66-77-44-5----|
E|22-44-55---------|

SOLO:
e|--------------------------------------|
B|910-1012-1214-1415-1719-1921-ring
G|--------------------------------------|
D|--------------------------------------|
A|--------------------------------------|
E|--------------------------------------|

ENDING:
e|-----------|-----------|-----------|-----------|
B|-----------|-----------|-----------|-----------|
G|7-7-777-6--|-----------|4-6-777-6--|--------6--|
D|7-7-777-6-7|4-4-44--4-2|4-6-777-6-7|4-6-777-6-7|
A|5-5-555-4-7|4-4-44--4-0|2-4-555-4-7|4-6-777-4-7|
E|----------5|2-2-220-2--|----------5|2-4-555---5|

e|-----------|-----------|-----------|-----------|
B|-----------|-----------|-----------|-----------|
G|7-7-777-6--|-----------|4-6-777-6--|-----------|
D|7-7-777-6-7|4-4-44--4-2|4-6-777-6-7|4-4-442----|
A|5-5-555-4-7|4-4-44--4-0|2-4-555-4-7|4-4-442-ring
E|----------5|2-2-220-2--|----------5|2-2-220----|

e|-----------------------------|
B|-----------------------------|
G|-----------------------------|
D|7----------------------------|
A|7-LOUDLY-and-keep-it-ringing-|
E|5----------------------------|

Добавлено: 13.09.2013
Другие материалы по этой песне:
  • Аккорды и текст

Страница создана 13.09.2013
http://primanota.ru/rasmus/in-the-shadows1-chords.htm
Привет, Гость.
Предлагаем пройти революционный курс по гитаре.
Подарок от PrimaNota.Ru, забирай!