PrimaNota.ru - самый крупный в мире бесплатный архив песенных текстов, аккордов, табулатур и нот


Rasmus - City Of The Dead - текст песни, таба, видео

Регистрация Запомнить меня
Войти через:  Facebook Google Twitter Vk Yandex Mail.ru

Rasmus - City Of The Dead - текст песни, таба, видео

Печатать
Просмотров: 215
-------------------------------------------------------------------------------
			     City Of The Dead - The Rasmus
-------------------------------------------------------------------------------
Tabbed by: Borbi01
Email: sebastianmorlang@googlemail.com

This is my second tab. Please rate...


Tuning: Standard

Intro:(clean)
(keyboard transcription for guitar)
e|---------------------------------------------------------------------------------|
B|---------------------------------------------------------------------------------|
G|---------------------------------------------------------------------------------|
D|-9-9-9-9-9-9-8-8-----------------------------------------------------------------|2x
A|---------------------------------------------------------------------------------|
E|---------------------------------------------------------------------------------|

Verse: (distorted)
e|---------------------------------------------------------------------------------|
B|---------------------------------------------------------------------------------|
G|---------------------------------------------------------------------------------|
D|-9-9--8-8--9-9--8-8--9-9--7-7--9-9--7-7------------------------------------------|1x
A|-9-9--8-8--9-9--8-8--9-9--7-7--9-9--7-7------------------------------------------|
E|-7-7--6-6--7-7--6-6--7-7--5-5--7-7--5-5------------------------------------------|

Pre-Chorus: 
e|----------------------------------------------------------------------------------|
B|----------------------------------------------------------------------------------|
G|----------------------------------------------------------------------------------|
D|-----------7-7---------------------------------7-7-7-7-7-7-7-7--------------------|1x
A|-9-9--5-5--5-5--7-7--9-9--5-5--7-7-7-7-7-7-7-7-7-7-7-7-7-7-7-7--------------------|
E|-7-7--3-3-------5-5--7-7--3-3--5-5-5-5-5-5-5-5-5-5-5-5-5-5-5-5--------------------|
   x x  x x  x x  x x  x x  x x  x x x x x x x x 

Chorus: 
e|-----------------------------------------------------------------------------------|
B|-----------------------------------------------------------------------------------|
G|-7-7-7-7------------9-9-9-9--------------------------------------------------------|
D|-7-7-7-7--9-9-9-9---9-9-9-9---7-7---5-5---4-4-4-4---5-5-5-5-5-5-5-5---7-7-7-7------|2x
A|-5-5-5-5--9-9-9-9---7-7-7-7---7-7---5-5---4-4-4-4---5-5-5-5-5-5-5-5---7-7-7-7------|
E|----------7-7-7-7-------------5-5---3-3---2-2-2-2---3-3-3-3-3-3-3-3---5-5-5-5------|

e|-----------------------------------------------------------------------------------|
B|-----------------------------------------------------------------------------------|
G|-----------------------------------------------------------------------------------|
D|-9-9-------------------------------------------------------------------------------|
A|-9-9-------------------------------------------------------------------------------|
E|-7-7-------------------------------------------------------------------------------|


Intro: (this time with guitar)
e|-----------------------------------------------------------------------------------|
B|-----------------------------------------------------------------------------------|
G|-----------------------------------------------------------------------------------|
D|-9-9---8-8--9-9---8-8--------------------------------------------------------------|1x
A|-9-9---8-8--9-9---8-8--------------------------------------------------------------|
E|-7-7---6-6--7-7---6-6--------------------------------------------------------------|
(second guitar can play the intro keyboard line)


Verse: 
e|-----------------------------------------------------------------------------------|
B|-----------------------------------------------------------------------------------|
G|-----------------------------------------------------------------------------------|
D|-9-9--8-8--9-9--8-8--9-9--7-7--9-9--7-7--------------------------------------------|1x
A|-9-9--8-8--9-9--8-8--9-9--7-7--9-9--7-7--------------------------------------------|
E|-7-7--6-6--7-7--6-6--7-7--5-5--7-7--5-5--------------------------------------------|


Pre-Chorus: 
e|-----------------------------------------------------------------------------------|
B|-----------------------------------------------------------------------------------|
G|-----------------------------------------------------------------------------------|
D|-----------7-7---------------------------------7-7-7-7-7-7-7-7---------------------|1x
A|-9-9--5-5--5-5--7-7--9-9--5-5--7-7-7-7-7-7-7-7-7-7-7-7-7-7-7-7---------------------|
E|-7-7--3-3-------5-5--7-7--3-3--5-5-5-5-5-5-5-5-5-5-5-5-5-5-5-5---------------------|
   x x  x x  x x  x x  x x  x x  x x x x x x x x 


Chorus: 
e|-----------------------------------------------------------------------------------|
B|-----------------------------------------------------------------------------------|
G|-7-7-7-7------------9-9-9-9--------------------------------------------------------|
D|-7-7-7-7--9-9-9-9---9-9-9-9---7-7---5-5---4-4-4-4---5-5-5-5-5-5-5-5---7-7-7-7------|2x
A|-5-5-5-5--9-9-9-9---7-7-7-7---7-7---5-5---4-4-4-4---5-5-5-5-5-5-5-5---7-7-7-7------|
E|----------7-7-7-7-------------5-5---3-3---2-2-2-2---3-3-3-3-3-3-3-3---5-5-5-5------|


Bridge: 
e|-----------------------------------------------------------------------------------|
B|-----------------------------------------------------------------------------------|
G|-7-7-7-7---------9-9-7-7-6-6-4-4-2-2-2-2-4-4-4-4-4-4-4-4-2-2-2-2-------------------|
D|---------9-9-9-9-------------------------------------------------------------------|2x
A|-----------------------------------------------------------------------------------|
E|-----------------------------------------------------------------------------------|
(second guitar plays Chorus part)

Chorus: 
e|-----------------------------------------------------------------------------------|
B|-----------------------------------------------------------------------------------|
G|-7-7-7-7------------9-9-9-9--------------------------------------------------------|
D|-7-7-7-7--9-9-9-9---9-9-9-9---7-7---5-5---4-4-4-4---5-5-5-5-5-5-5-5---7-7-7-7------|2x
A|-5-5-5-5--9-9-9-9---7-7-7-7---7-7---5-5---4-4-4-4---5-5-5-5-5-5-5-5---7-7-7-7------|
E|----------7-7-7-7-------------5-5---3-3---2-2-2-2---3-3-3-3-3-3-3-3---5-5-5-5------|
(other guitar continues playing the Bridge part...)

Ending:
e|-----------------------------------------------------------------------------------|
B|-----------------------------------------------------------------------------------|
G|-----------------------------------------------------------------------------------|
D|-9-9-9-9-9-9-9-9-9-9-9-9-9-9-9-9--9-\----------------------------------------------|
A|-9-9-9-9-9-9-9-9-9-9-9-9-9-9-9-9--9-\----------------------------------------------|
E|-7-7-7-7-7-7-7-7-7-7-7-7-7-7-7-7--7-\----------------------------------------------|


| /  slide up
| \  slide down
| h  hammer-on
| p  pull-off
| ~  vibrato
| +  harmonic
| x  Mute note
===============================================================================
Добавлено: 29.07.2013
Другие материалы по этой песне:
  • Аккорды и текст

Страница создана 21.05.2012
http://primanota.ru/rasmus/city-of-the-dead-chords.htm
Привет, Гость.
Предлагаем пройти революционный курс по гитаре.
Подарок от PrimaNota.Ru, забирай!