PrimaNota.ru - самый крупный в мире бесплатный архив песенных текстов, аккордов, табулатур и нот


Rasmus - Blue - текст песни, таба, видео

Регистрация Запомнить меня
Войти через:  Facebook Google Twitter Vk Yandex Mail.ru

Rasmus - Blue - текст песни, таба, видео

Печатать
Просмотров: 210
Уроки эстрадного вокала в Санкт-Петербурге
-------------------------------------------------------------------
			     Blue-The Rasmus
-------------------------------------------------------------------

Tabbed by:  JayVeeBee
Email:    funeral-song@hotmail.com

Tuning: standard

well i checked around the net and nobody has done this tab yet... Crazy! its an awesome 
did my best plz rate!

this is pretty much the best i can come up with for the piano part, its close (work out 
many times to play each yourself) sounds best fingerpicking.....

e|--9--12--5--9--5--4--9--7--------------------------|
B|-10--12--7-10--7--5-10--9--------------------------|
G|---------------------------------------------------|
D|---------------------------------------------------|
A|---------------------------------------------------|
E|---------------------------------------------------|

this next part i reckon is about three times each chord yah?

e|---------------------------------------------------|
B|---------------------------------------------------|
G|---------------------------------------------------|
D|-14-13-11-9-7-6-7-9------(then on last time play---|
A|-12-11-9--7-5-4-5-7-------the last chord four------|
E|-12-11-9--7-5-4-5-7---------------times)-----------|

now after a bit of drums we come in with the "ice cream riff as i believe it is called" 
again i think your all old enough to do timing)

e|-2----6----4----4----------------------------------|
B|-2----7----4----6----------------------------------|
G|-3----8----4----6----------------------------------|
D|-4----8----6----6----------------------------------|
A|-4----6----6----4----------------------------------|
E|-2----x----4----x----------------------------------|

now we have the chorus, and frig i just could not hear the chords over everything else 
on so all i have is power chords, sorry dudes!

e|---------------------------------------------------|
B|---------------------------------------------------|
G|------------------------------(if you work out-----|
D|--------------------------out what the full chords-|
A|--2--7--6--8-------------are, please email me!!!)--|
E|--0--9--4--6---------------------------------------|

 and of course, who can forget the mighty solo, quite a simple one here but sounds great 
the top of the first GUITAR riff on this tab, not the piano part!

e|-------------------------------------------------------------17-------|
B|-----------------------------------10-10/12-12-10---10-12-14---15-14--|
G|-----9-7-6---6-------------------9----------------9-------------------|
D|---7-------7---9-7-----7-6-7-9-7--------------------------------------|
A|-------------------9-7------------------------------------------------|
E|----------------------------------------------------------------------|

 this is still the solo here so no pause but you have to slide from about the third fret 
to the following notes to finish it off.

e|------/10-/12-/14-/16-/17---------------------------------------------|
B|----------------------------------------------------------------------|
G|----------------------------------------------------------------------|
D|----------------------------------------------------------------------|
A|----------------------------------------------------------------------|
E|----------------------------------------------------------------------|

so yah that is my tab, please do comment me and email if you work out the chorus, and i 
so i can add it on the tab, cools! hoo-roo!

 /  slide up
 \  slide down
 h  hammer-on
 p  pull-off
 ~  vibrato
 +  harmonic
 x  Mute note
Добавлено: 06.10.2013
Другие материалы по этой песне:
  • Аккорды и текст

Страница создана 04.06.2012
http://primanota.ru/rasmus/blue-chords.htm
Привет, Гость.
Предлагаем пройти революционный курс по гитаре.
Подарок от PrimaNota.Ru, забирай!