PrimaNota.ru - самый крупный в мире бесплатный архив песенных текстов, аккордов, табулатур и нот


Rascal Flatts - It's Not Just Me - текст песни, таба, видео

Регистрация Запомнить меня
Войти через:  Facebook Google Twitter Vk Yandex Mail.ru

Rascal Flatts - It's Not Just Me - текст песни, таба, видео

Печатать
Просмотров: 82
Уроки эстрадного вокала в Санкт-Петербурге
Title: It's Not Just Me
Artist: Rascal Flatts
Album: Rascal Flatts
Song Writers: DeMarcus and Hummon
Date: 12-25-02

Standard EADGBe tuning

Tabbed by Aaron Kuefler
Sorry, it's only the solo.  I'm working on the other stuff, but for now have fun.

h - hammer on 
p - pull off 
/ - slide up 
\ - slide down 
^ - vibrato

Guitar Solo: Starts at 2:31
E| ------------------------------------------------------------|
B| -18---------------13/15-15-13-13----13/16-15-13h15p13-------|
G| ------15-14-15----------------------------------------15-15-|
D| ---------------17----------------17-------------------------|
A| ------------------------------------------------------------|
E| ------------------------------------------------------------|

E| -/18-17-18-------15-17-18----20----22--20-20-18-18-|
B| -----------16-18----------18----18-----------------|
G| ---------------------------------------------------|
D| ---------------------------------------------------|
A| ---------------------------------------------------|
E| ---------------------------------------------------|

E| ---------------------------------------|
B| -18-18\15--15\13--13\11--11\10^^^^^^^^-|
G| ---------------------------------------|
D| ---------------------------------------|
A| ---------------------------------------|
E| ---------------------------------------|


     
Добавлено: 29.10.2013
Другие материалы по этой песне:
  • Аккорды и текст

Страница создана 21.06.2012
http://primanota.ru/rascal-flatts/its-not-just-me-chords.htm
Привет, Гость.
Предлагаем пройти революционный курс по гитаре.
Подарок от PrimaNota.Ru, забирай!