PrimaNota.ru - самый крупный в мире бесплатный архив песенных текстов, аккордов, табулатур и нот


Raphael Saadiq - 100 Yard Dash - бас-таба, видео

Регистрация Запомнить меня
Войти через:  Facebook Google Twitter Vk Yandex Mail.ru

Raphael Saadiq - 100 Yard Dash - бас-таба, видео

Печатать
Просмотров: 144
Авторы музыки: Raphael Saadiq, Bobby Ozuna

----------------------------------------------------------------------------
                      100 YARD DASH – Raphael Saadiq
----------------------------------------------------------------------------

Tabbed By: Funkinsteff

Tuning: Standard EADG

It's basically just repeats Riff 1 / Riff 1 / Riff 2 / Riff 3
all the way through ..

G|-----------------|-----------------|
D|-----------------|-7---------------|  Riff 1 * 2
A|----7-6-4--------|-------7-9-9-----|
E|------------7-6--|-----------------|

G|-----------------|-----------------|
D|-----------------|-7---------------|  Riff 2 * 1
A|----7-6-4--------|-------7-9-9-----|
E|--2---------7-6--|-----------------|

G|-----------------|-----------------|
D|-----------------|-7-----7-9-9-----|  Riff 3 * 1
A|----7-6-4--------|-----------------|
E|--2---------7-6--|-----------------|


.. apart from these lines when Riff 3 is replaced by Riff 4:

“ .. so I can sing some jazz”
“ .. see I can feel the attack”

G|-----------------|-----------------|
D|-----------------|-7---------------|  Riff 4
A|----7-6-4--------|-----------------|
E|--2---------7-6--|-----------------|
Добавлено: 07.10.2013
Другие материалы по этой песне:
  • Аккорды и текст

Страница создана 07.10.2013
http://primanota.ru/raphael-saadiq/100-yard-dash-chords.htm
Привет, Гость.
Предлагаем пройти революционный курс по гитаре.
Подарок от PrimaNota.Ru, забирай!