PrimaNota.ru - самый крупный в мире бесплатный архив песенных текстов, аккордов, табулатур и нот


Randy - Humanalogism - текст песни, таба, видео

Регистрация Запомнить меня
Войти через:  Facebook Google Twitter Vk Yandex Mail.ru

Randy - Humanalogism - текст песни, таба, видео

Печатать
Просмотров: 119
Уроки эстрадного вокала в Санкт-Петербурге
-----------------------------------------------------------------------------
                             Humanalogism - Randy
-----------------------------------------------------------------------------
Tabbed by:filiot966
E-mail:filiotrix@gmail.com

Tuning:Standard Tuning

Verse#
e|---------------------------------------------------------------|
B|---------------------------------------------------------------|
G|--------------------------------------------------------777777-|
D|-555555-777777-444444-55-5-55-5-444444-55-5-55-5-777777-777777-|
A|-555555-777777-444444-55-5-55-5-444444-55-5-55-5-777777-555555-|
E|-333333-555555-222222-33-3-33-3-222222-33-3-33-3-555555--------|

e|-----------------------------------------------------------------|
B|-----------------------------------------------------------------|
G|-------------------------------------------------161616161616-14-|
D|-555555-777777-444444-55-5-55-5-444444-55-5-55-5--x-x-x-x-x-x--x-|
A|-555555-777777-444444-55-5-55-5-444444-55-5-55-5-141414141414-12-|
E|-333333-555555-222222-33-3-33-3-222222-33-3-33-3-----------------|

Chorus#
e|-------------------------------------------------------------------------|
B|-------------------------------------------------------------------------|
G|-77777777----------------------------77777777----------------------------|
D|-77777777-77777777-99999999-44444444-77777777-77777777-99999999-44444444-|
A|-55555555-77777777-99999999-44444444-55555555-77777777-99999999-44444444-|
E|----------55555555-77777777-22222222----------55555555-77777777-22222222-|

e|------------------------------------|
B|------------------------------------|
G|-----------------------777777-7-6-7-|
D|-5555555555-7777777777-xxxxxx-x-x-x-|
A|-5555555555-7777777777-555555-5-4-5-|
E|-3333333333-5555555555--------------|

Verse#1x

Chorus2#
e|-------------------------------------------------------------------------|
B|-------------------------------------------------------------------------|
G|-77777777----------------------------77777777----------------------------|
D|-77777777-77777777-99999999-44444444-77777777-77777777-99999999-44444444-|
A|-55555555-77777777-99999999-44444444-55555555-77777777-99999999-44444444-|
E|----------55555555-77777777-22222222----------55555555-77777777-22222222-|

e|-----------------------|
B|-----------------------|
G|-----------------------|
D|-5555555555-7777777777-|
A|-5555555555-7777777777-|
E|-3333333333-5555555555-|

Bridge#ALL PALM MUTED
e|------------------------------------------------------------|
B|------------------------------------------------------------|
G|------------------------------------------------------------|
D|---------------------------------------------------99999999-|
A|---9----9----10----9----9----9----10---9--66666666-77777777-|
E|-77-7-77-7-77---77--7-66-6-66-6-66---66-6-44444444----------|

e|---------------------------------------|
B|---------------------------------------|
G|-11-11-12-14--9--9-11-12-7---9-7-7-9-7-|
D|--x--x--x--x--x--x--x--x-x---x-x-x-x-x-|
A|--9--9-10-12--7--7--9-10-5---7-5-5-7-5-|
E|---------------------------------------|

e|--------------------------------------|
B|--------------------------------------|
G|-11--12--11-7-9-7--11--12--11--999999-|
D|--x---x--x--x-x-x---x---x---x--999999-|
A|--9--10--9--5-7-5---9--10---9--777777-|
E|--------------------------------------|

e|-----------------------------------------------------------------------|
B|-----------------------------------------------------------------------|
G|----------7-77-6-66-------------------------777777-6-66----------------|
D|-55555555-7-77-6-66-9-99-7-77-555555-777777-777777-6-66-9-99-7-77-9-99-|
A|-55555555-5-55-4-44-9-99-7-77-555555-777777-555555-4-44-9-99-7-77-9-99-|
E|-33333333-----------7-77-5-55-333333-555555-------------7-77-5-55-7-77-|

e|--------------------------------------------------------------|
B|--------------------------------------------------------------|
G|----------7-77-6-66--------------5-7--------------------------|
D|-55555555-7-77-6-66-9-99-7-77--5-5-7-5-55-55-7777777777777777-|
A|-55555555-5-55-4-44-9-99-7-77--5-3-5-5-55-55-7777777777777777-|
E|-33333333-----------7-77-5-55--3-----3-33-33-5555555555555555-|

e|------------------------------------------------|
B|------------------------------------------------|
G|-7777777777-----------------------------------7-|
D|-7777777777-9999999999-5555555555-7777777777--7-|
A|-5555555555-9999999999-5555555555-7777777777--5-|
E|------------7777777777-3333333333-5555555555----|


************************************

| /   slide up
| \   slide down
| h   hammer-on
| p   pull-off
| ~   vibrato
| +   harmonic
| x   Mute note
| b   Bend
| pb  Pre-bend
| br  Bend release
| pbr Pre-bend release
| brb Bend release bend

************************************
Добавлено: 22.11.2013
Другие материалы по этой песне:
  • Аккорды и текст

Страница создана 05.05.2012
http://primanota.ru/randy/humanalogism-chords.htm
Привет, Гость.
Предлагаем пройти революционный курс по гитаре.
Подарок от PrimaNota.Ru, забирай!