PrimaNota.ru - самый крупный в мире бесплатный архив песенных текстов, аккордов, табулатур и нот


Randy Newman - Ghosts - аккорды и текст, видео

Регистрация Запомнить меня
Войти через:  Facebook Google Twitter Vk Yandex Mail.ru

Randy Newman - Ghosts - аккорды и текст, видео

Печатать
Просмотров: 108
Авторы музыки: Randy Newman
Авторы текста: Randy Newman
Ghosts
Randy Newman
--------------------------------------------------------------------------
                Ghosts - Randy Newman
---------------------------------------------------------------------------
Tabbed by: maguri
Tuning: Standard

Randy Newman
Ghosts (1978)
(Randy Newman)

From: "Born Again"

Want to know what this tab sounds like? Check it out here: 
http://profile.ultimate-guitar.com/maguri/music/all/play1173679

---------------------------------------------------------------------------
CHORDS

         E-A-D-G-B-E
F#7M     x-x-4-3-2-1
Eb7M     x-6-5-3-3-3
Eb6      x-6-5-5-4-x
F7b9     1-x-1-2-1-2
Bb(add9) x-1-3-3-1-1
Gm7/11   3-x-3-3-1-x
Bb/F     x-x-3-3-3-1
Bb/Ab    4-x-3-3-3-x
Ebadd9   x-x-1-3-x-1
Eb       x-x-1-3-4-x
Gm7/D    x-5-5-3-6-x  or
         x-x-0-3-6-x


---------------------------------------------------------------------------

LINK 1

e|----------------|
B|1-------1---2---|
G|3---2-3---------|
D|2---0---3---1---|
A|3---------------|
E|----------------|

LINK 2

 F7/9 F6 F7/9 F         F7/9 F6 F7/9 F 
e|------------1---|     |----------------|
B|4---3---4-------|     |4---3---4---6---|
G|0-------0---2---|     |----------------|
D|----3-----------| or  |5---3---5---7---|
A|----------------|     |----------------|
E|1---------------|     |----------------|



---------------------------------------------------------------------------

F#7M       C7       F7M          F6
 Stay with me for a little while
Eb7M              Eb6
You've nowhere to go
    Dm7             G7
And I've nowhere to go
Gm7             C7
 It makes me so happy
F7sus4     F7
  When you smile 
   | Bb(add9)| Gm7/11 | Cm7 | F7 F7b9 |
At me

Bb(add9)        Gm7/11 
  Work all your life
Cm7                   F7     F7b9 
  And you end up with nothing
Bb(add9)      Gm7/11      C7     [LINK 1]
  Live in one room like a bum

Bb/F     Bb/Ab
  Once I flew in a plane
Fm      Bb7         Ebadd9   Eb
  And I fought in a war
C7sus4          C7
  We lived in a castle
Gm7/D C7           F
  And slept on the floor
Bb(add9)     Gm7/11
 And I don't want to be
C7sus4        C7       F7/9 F6 F7/9 F [= LINK 2]
 All alone anymore I'm sorry

Bb(add9)     Gm7/11
  Out in the street
Cm7                   F7     F7b9 
  Little colored kids playing
Bb(add9)   Gm7/11                 C7   [LINK 1]
  Where my own little boy used to play

Bb/F  Bb/Ab
 So I sit in this chair
Fm     Bb7           Ebadd9   Eb
 And I ache with the gout
C7sus4           C7   
 And I talk to myself
Gm7/D       C7           F
 'Cause I'm scared to go out
Bb(add9)    Gm7/11
 And I just want to know
C7sus4            C7       F7/9 F6 F7/9 F [= LINK 2]
 What was it all about I'm sorry
Добавлено: 26.06.2013
Другие материалы по этой песне:
  • Аккорды и текст

Страница создана 27.04.2012
http://primanota.ru/randy-newman/ghosts-chords.htm
Привет, Гость.
Предлагаем пройти революционный курс по гитаре.
Подарок от PrimaNota.Ru, забирай!