PrimaNota.ru - самый крупный в мире бесплатный архив песенных текстов, аккордов, табулатур и нот


Randy Meisner - Anyway bye bye - таба, видео

Регистрация Запомнить меня
Войти через:  Facebook Google Twitter Vk Yandex Mail.ru

Randy Meisner - Anyway bye bye - таба, видео

Печатать
Просмотров: 90



Date: Wed, 27 Jul 2005 21:01:29 -0500
From: Bruce Muckala 
Subject: m/meisner_randy/anyway_bye_bye.tab

Anyway Bye Bye
(written by Richie Furay)
 From ~SOne More Song~T by Randy Meisner
also recorded by Poco

--------------------------------------
--------------------------------------
-------------------0------------------
----------0---2-----------------------
---0--2-------------------------------
--------------------------------------

Do above then C ~V G then

--------------------------------------
-------------------3------------------
--------------3-----------------------
----------4---------------------------
---5----------------------------------
--------------------------------------

Which is a D diminished or augmented ~V can~Rt remember 
It~Rs played later in the song too.

          G  G7        C           C ~V Bm Em
Are you sad . . .   leavin'
            C ~V F ~V E             A        D ~V Dsus - D
. . . bye byes       aren't .  . pleasin'
                 G  -  G7
Would you come along . .  .
          C           C ~V Bm Em
If I was leavin'
                  C ~V F - E
. . . down on my knees
             A           D ~V Dsus - D
Long . . . pleasin'
           C
I got to clear . . .
          Em
Changes that I . . .
              A
Are waiting for me
       D ~V Dsus - D
. . . me
C        G
Anyway, bye bye

Intro again, etc.
Same for second verse and the rest of the song.
(Always thought Richie shouldn't have rhymed
'pleasin' with 'pleasin'     Great song though)


Добавлено: 28.02.2014
Другие материалы по этой песне:
  • Аккорды и текст

Страница создана 28.02.2014
http://primanota.ru/randy-meisner/anyway-bye-bye-chords.htm
Привет, Гость.
Предлагаем пройти революционный курс по гитаре.
Подарок от PrimaNota.Ru, забирай!