PrimaNota.ru - самый крупный в мире бесплатный архив песенных текстов, аккордов, табулатур и нот


Rancid - You Dont Care Nothin - текст песни, таба, бас-таба, видео

Регистрация Запомнить меня
Войти через:  Facebook Google Twitter Vk Yandex Mail.ru

Rancid - You Dont Care Nothin - текст песни, таба, бас-таба, видео

Печатать
Просмотров: 150
- Rancid - You Don't Care Nothin'
- Tabbed by: Pacu, bassist from a brazilian punk rock band called PunkAss.
- This song is really nice. It seems hard but it isnt, just listen to the song
and play that. Hope it helps. 

______


Intro
G|-17----14----|
D|----17----15-|
A|-------------|
E|-------------|

G|----------------|------|---------------------|
D|----------------|------|---------------------|
A|-3----00-----01-|-[2x]-|-3----00-------------|
E|---33----11-3---|------|---33----11-00000000-|

Verse
G|-----------------------------------|
D|-----------------------20----------|
A|-0-0-310-------012-3-3---31----235-|
E|--------3-1-1-3-------------3-3----|

G|----------------------------------------|
D|-----------------------1133-5-555-3-1-0-|
A|-0-0-310-------012-3-3------------------|
E|--------3-1-1-3-------------------------|

Pre-chorus
G|-------------------------------------|
D|-------------------------------------|
A|-00000000-------12-33333210----------|
E|----------111113------------33333333-|

G|--------------------------------------|
D|------------------------023-55555-320-|
A|-00000000-------12-33333--------------|
E|----------111113----------------------|

Chorus
G|-------2---2--------------------|
D|----235-3-3-532----20-----------|
A|-3-3------------3-3--32-----012-|
E|------------------------1-13----|

G|-------2---2--------------------------------------|
D|----235-3-3-532----20-----------------------------|
A|-3-3------------3-3--32----20----------------1122-|
E|------------------------3-3--32-11111111-2233-----|

Verse
Pre-chorus
Chorus

Variation
G|-17----14-------1415--17----14----|
D|----17----15--17---------17----15-|
A|----------------------------------|
E|----------------------------------|

G|---------------------|
D|---------------------|
A|-3----00-------------|
E|---33----11-00000000-|

Verse (“ about me”)
Chorus

Ending [4x]
G|-----------------------------------|----------------|
D|----20-----------------------------|-After-4th-time-|
A|-3-3--32----20----------------1122-|-------3--------|
E|---------3-3--32-11111111-2233-----|----------------|


Добавлено: 02.07.2012
Другие материалы по этой песне:

Страница создана 03.04.2012
http://primanota.ru/rancid/you-dont-care-nothin-chords.htm
Привет, Гость.
Предлагаем пройти революционный курс по гитаре.
Подарок от PrimaNota.Ru, забирай!