PrimaNota.ru - самый крупный в мире бесплатный архив песенных текстов, аккордов, табулатур и нот


Rancid - Sick Sick World - текст песни, бас-таба, видео

Регистрация Запомнить меня
Войти через:  Facebook Google Twitter Vk Yandex Mail.ru

Rancid - Sick Sick World - текст песни, бас-таба, видео

Печатать
Просмотров: 151
Уроки эстрадного вокала в Санкт-Петербурге
- Rancid - Sick Sick World
- Tabbed by Pacu, bassist from a brazilian punk rock band that is called PunkAss.
- The song itelf is pretty right, but some variations that Matt does i just tabbed by 
way i thought it was. So, improvise too!


Tunning: Standart (EADG)


Intro
G---------------------------|
D-----------6h8-6-----------|
A-6-----6-8-------8-6-------|
E---8-8--------------8-6-8~-|

Verso
G-----------------------------------------------------------------|
D-----------------------------------------------------------------|
A-----111-----310------111-----310------111-----310—11111111-3333-|
E-111-----111------111-----111------111-----111-------------------|

Refrao
G----------------------------------------------------------|
D---1-2-33333333-2-1---------------------------------------|
A-3------------------3--11111111-3-------------1-2-3333333-|
E-----------------------------------11111111-3-------------|

G---------------------------------------------|
D---------------------------------------------|
A-3-2-1-------------1111111-3-------3333------|
E-------11111111-3-------------1111------1111-|

Verso
G-----------------------------------------------------------------|
D-----------------------------------------------------------------|
A-----111-----310------111-----310------111-----310—11111111-3333-|
E-111-----111------111-----111------111-----111-------------------|


Refrao
G----------------------------------------------------------|
D---1-2-33333333-2-1---------------------------------------|
A-3------------------3--11111111-3-------------1-2-3333333-|
E-----------------------------------11111111-3-------------|

G---------------------------------------------|
D---------------------------------------------|
A-3-2-1-------------1111111-3-------3333------|
E-------11111111-3-------------1111------1111-|

Bridge
             (Ten, Eleven, Twelve)
G-------------1010101112~-10----------|
D----------------------------12-10----|
A-11111111-------------------------12-|
E----------1--------------------------|

G---------------12-10----------|
D---------------------12-10----|
A-11111111----8-------------12-|
E----------1-------------------|

G------------8h10----8------88991010-171716161515--------------------------|
D-----------------11---9--10----------------------171716161515-------------|
A-11111111-----------------------------------------------------171716161515|
E----------1---------------------------------------------------------------|

Chorus
G----------------------------------------------------|
D-33333333-2-1---------------------------------------|
A--------------3--11111111-3-------------1-2-3333333-|
E-----------------------------11111111-3-------------|

G---------------------------------------------|
D---------------------------------------------|
A-3-2-1-------------1111111-3-------3333------|
E-------11111111-3-------------1111------1111-|

Ending
G-----------------------------|
D-----------------------------|
A------3333------------3333---|
E-1111------1111--1111------1-|

________
Pacu.
Добавлено: 03.06.2012
Другие материалы по этой песне:
  • Аккорды и текст

Страница создана 03.06.2012
http://primanota.ru/rancid/sick-sick-world-chords.htm
Привет, Гость.
Предлагаем пройти революционный курс по гитаре.
Подарок от PrimaNota.Ru, забирай!