PrimaNota.ru - самый крупный в мире бесплатный архив песенных текстов, аккордов, табулатур и нот


Rancid - La River - бас-таба, видео

Регистрация Запомнить меня
Войти через:  Facebook Google Twitter Vk Yandex Mail.ru

Rancid - La River - бас-таба, видео

Печатать
Просмотров: 152
Уроки эстрадного вокала в Санкт-Петербурге
Авторы: Lars Frederiksen, Tim Armstrong, Matt Freeman

Rancid - L.A River - BASS TAB
Album - Let The Dominoes Fall - realeased at 06.02.09
Song time: 2:36
Turning: E A D G

English:
Hi everyone, I'm here to share with you the tab
of the song "L.A River" from Rancid's new album.
I've just heard it and tried to get the entire song,
but there's probably some wrong stuff, so please,help me out.
I made this for help all bass players, like me. Please Enjoy.


Português:
Eae galera, eu to aqui pra compartilhar com vocês a tab da música "L.A River" do novo 
do Rancid.
Eu acabei de escutar e tentei pegar a música inteira, mas provavelmente ainda tem 
coisas erradas, então por favor, me ajudem.
Eu fiz essa para ajudar todos os baixistas, como eu. Aproveite.

Intro/chorus    0:00 to 0:14

G-------------------------------------|
D-55-44-33-22-------------------------|   X4
A-------------55-44-33-2-------(2-3)--|
E-----------------------3-0-3---------|

Verse    0:15 to 0:28

G------------------------------------|
D------------------------------------|
A------------------------------------|    x2
E-1111111111-333333333---------------|

Pré chorus   0:29 to 0:34

L.A River...
G--------------------------|
D--------------------------|   x1
A-2333333333---------------|
E--------------------------|


Chorus       0:35 to 0:40
Pré Chorus   0:41 to 0:47
Chorus       0:48 to 0:53
Verse        0:54 to 1:08
Pré Chorus   1:09 to 1:14
Chorus       1:15 to 1:20
Pré Chorus   1:21 to 1:27
Chorus       1:28 to 1:33

Guitar solo  1:34 to 1:41

G----------------------------------------|
D----------------------------------------|
A----------------------------------------|
E-1111-3333-1111-6666--1111-333311111111-|

Bridge 1:42 to 1:43

G--------------------------|
D--------------------------|
A-3-2-3-2-3-2-3-2-3-2------|
E--------------------------|

Verse 1:44 to 1:57

Outro 1:58 to 2:15

No Bass in this, but I'm almost sure that
in the guitar is:

E------------------------------------|
B------------------------------------|
G-4~--45-45-45-45-52-52-52--45-45-45-|
D-4~--45-45-45-45-52-52-52--45-45-45-|
A-2~--23-23-23-23-32-32-32--23-23-23-|
E------------------0--0--0-----------|

~: Let Ring

Chorus 2:16 to 2:30


End   2:31 to 2:36

G-------------------------|
D-------------------------|
A-------------------------|
E-33-00-23-00-23--00-23---|


So, this is it, hope you liked.
If you wanna contact me with sugestions/complains/ideas
send an e-mail to:
guilherme_pvn@hotmail.com
Добавлено: 13.07.2012
Другие материалы по этой песне:
  • Аккорды и текст

Страница создана 13.07.2012
http://primanota.ru/rancid/la-river-chords.htm
Привет, Гость.
Предлагаем пройти революционный курс по гитаре.
Подарок от PrimaNota.Ru, забирай!