PrimaNota.ru - самый крупный в мире бесплатный архив песенных текстов, аккордов, табулатур и нот


Rancid - And Out Come The Wolves - аккорды и текст, таба, видео

Регистрация Запомнить меня
Войти через:  Facebook Google Twitter Vk Yandex Mail.ru

Rancid - And Out Come The Wolves - аккорды и текст, таба, видео

Печатать
Просмотров: 158
Уроки эстрадного вокала в Санкт-Петербурге
And Out Come The Wolves
Rancid
--------------------------------------------------------------------------
               RANCID-AND OUT COME THE WOLVES......
--------------------------------------------------------------------------
Tabbed by:Mat waters
Email:Slash_gibsons@hotmail.com

Tuning:EADGBE

SONG LIST-

#1-Maxwell Murder
#2-The 11th Hour
#3-Roots Radicals
#4-Time Bomb
#5-Olympia WA.
#6-Lock, Step & Gone
#7-Junkie Man
#8-Listed M.I.A.
#9-Ruby Soho
#10-Daly City Train
#11-Journey to the End of the East Bay
#12-She's Automatic
#13-Old Friend
#14-Disorder and Disarray
#15-The Wars End
#16-You Don't Care Nothin'
#17-As Wicked
#18-Avenues & Alleyways
#19-The Way I Feel
=======================================================================
MAXWELL MURDER-
INTRO-(BASS)(A-2-3-4-)

VERSE 1-
D
Maxwell can tell he's in hell
C                 G
Just wants you to visit him there
D
Same old game that he's playing
C             G
His rules are never fair

PRE CHORUS-
D
Nobody wanna look back everybody wanna
C
Get high tonight before they run outta time
D
Where is the felon, yeah the chargible felon
C
Name of the crook who commited the crime

CHORUS-
F          A               D
999 if you really want the truth
     F          A            D 
Dial 999 if you can't see it through
   F                                A        D
He ain't Jack the Ripper, he's your ordinary crook
D       A       F          A    
Calling Maxwell Murder for you

VERSE 2-
D
Maxwell got a hand in this plan
C                G
He knows that you're in on this plan
D
Chop the rock before you bought it
C                G
Sickness Maxwell knows you caught it

PRE CHORUS-
D
Nobody wanna look back everybody wanna
C
Get high tonight before they run outta time
D
Where is the felon, chargible felon
C     
Name of the crook who commited the crime

CHORUS-
F          A               D
999 if you really want the truth
     F          A            D 
Dial 999 if you can't see it through
   F                                A        D
He ain't Jack the Ripper, he's your ordinary crook
D       A       F          A
Calling Maxwell Murder for you

D
(BASS SOLO)=AWSOME) 

(Oh Max.... You motherfucker....)

CHORUS-
     F          A               D
Dial 999 if you really want the truth
     F          A            D 
Dial 999 if you can't see it through
   F                                A        D
He ain't Jack the Ripper, he's your ordinary crook
D       A       F          A
Calling Maxwell Murder for you

End on D
=========================================================================
11th HOUR-

INTRO-
e|---------------------1--1---------------------------------------------|
B|--------5--5---------1--1---------------------------------------------|
G|--------5--5---------2--2---------------------------------------------|
D|-5--5---5--5--5--5---3--3---------------------------------------------|
A|-5--5---3--3--5--5---3--3---------------------------------------------|
E|-3--3---------3--3---1--1---------------------------------------------|

RIFF 1-
e-----------------------------
B-----------------------------
G-5-4-5-4-5-4-5-4-5-4-5-4-5-7-
D-----------------------------
A-----------------------------
E-----------------------------

VERSE 1-
C   F       C     G        C         F       C   G
Hey little sister   do you know what time it was
         C       F             C      G
When you finally seen all your broken dreams
     F                  G    
Come crashing down your door

C      F       C      G     C      F       C     G
They demand an answer   and they demand it quick
         C         F                C      G
When the questions fade and all the wasted days
     F                 G
Come crawling back for more and I said

F                     C
Do you know where the power lies
F         C
 And who pulls the strings
F                     C
Do you know where the power lies
   A          G         C
It starts and ends with you

C  F   CC  (WITH RIFF-1)  

    C       F  C      G      C               F    C   G
The face of isolation   well that's what you recognize
             C         F             C      G
And what you can't get straight is a lonely place
    F          G   
And all you do despise

C       F      C        G     C       F        C   G
Boredom is for sale now   and helplessness you feel
            C       F            C         G
Well it's a wounded dove and the hawks are above
    F                   G
For splattering reel to reel and I said

F                     C
Do you know where the power lies
F        C
 And who pulls the strings

F                     C
Do you know where the power lies
   A          G         C
It starts and ends with you

C  F    C C  (WITH RIFF-1) 

(BASS)
I was almost over and my world was almost gone

And in a sudden rush I could almost touch the
F                    G                   
Things that I'd done wrong

   C        F       C        G                 C       F     C    
My jungle's made of concrete   and through the silence I can feel
G         C      F               C       G
 That my aim is true and I will walk on through
      F                 G
These mountains made of steel and I said

F                     C
Do you know where the power lies
F       C
And who pulls the strings
F                     C
Do you know where the power lies
   A          G         C
It starts and ends with you

C  F   C C  (WITH RIFF- 1)
END-
===================================================================
ROOTS RADICALS-

VERSE-1
C               F          
Took the 60 bus out of downtown Campbell
G                 F               C
Ben Zanado he was on there he was waiting for me
C                    F
All the punk rockers and the moon stompers
G              F                     C
Are out on the corners where they're sparing for change

VERSE2-
C                      F
I started thinking you know I started drinking
G              F                 C
I don't really remember too much of that day
C                              F
Something struck me funny when we ran outta money
G            F                  C
Where do you go now when you're only fifteen? 

PRE CHORUS-
Bb                               F                                         
When the music execution and the talk of revolution
G
 bleeds in me and it goes

CHORUS-
C                     F         G
Give 'em the boot the roots the radicals
C                 F          G
Give 'em the boot y'know I'm a radical
C                 F         G                C      G
Give 'em the boot the roots the reggae on my stereo

VERSE 3-
C                             F
The radio was playing Desmond Dekker was singing
       G  F         C 
On the 43 bus as we climb up the hill
C                        F
Nothing incoming but the reggae drumming
       G        F    C 
And we all come from unloving homes

VERSE 4-
C                   F
Why even bother and pick up the bottle
    G          F      C
Mr. Bus Driver please let these people on
C                     F
Rude girl Carol was a mini-skirt girl
   G      F          C
My blurry vision saw nothing wrong

PRE CHORUS-
Bb                               F                                         
When the music execution and the talk of revolution 
G
 bleeds in me and it goes

CHORUS-
C                     F         G
Give 'em the boot the roots the radicals
C                 F          G
Give 'em the boot y'know I'm a radical
C                 F         G                C      
Give 'em the boot the roots the reggae on my stereo
G        
On my stereo!

SOLO-
F                             C
Yeah yeah yeah yeah yeah yeah yeah
(PT-1)
                                            
e|-7/8-8-8-7/8-8-8----11-----------------|
B|-7/8-8-8-7/8-8-8----11-----------------|
G|-----------------10-10-----------------|
D|---------------------------------------|
A|---------------------------------------|
E|---------------------------------------|

(PT-2)
e|-----------------B---------------------|
B|-11-8-10-11-8-10-11-10-8---------------|
G|-------------------------10------------|
D|---------------------------------------|
A|---------------------------------------|
E|---------------------------------------

F                             C
Yeah yeah yeah yeah yeah yeah yeah
 
(SOLO-PT-1)
                                  
F                             C
Yeah yeah yeah yeah yeah yeah yeah

(SOLO-PT-2)
F*                            C
Yeah yeah yeah yeah yeah yeah yeah

E|-1/3-3-1/3-3-3-3-11-|
B|-1/3-3-1/3-3-3-3-10-|
G|--------------------|
D|--------------------|
A|--------------------|
E|--------------------|

F                             G
Yeah yeah yeah yeah yeah yeah yeeeaaah

VERSE 5-
C               F          
Took the 60 bus out of downtown Campbell
G                 F               C
Ben Zanado he was on there he was waiting for me
C                    F
All the punk rockers and the moon stompers
G              F                     C
Are out on the corners where they're sparing for change

VERSE 6-
C                             F
The radio was playing Desmond Dekker was singing
       G  F         C 
On the 43 bus as we climb up the hill
C                     F
Rude girl Carol was a mini-skirt girl
   G      F          C
My blurry vision saw nothing wrong

PRE CHORUS-
Bb                               F                                         
When the music execution and the talk of revolution 
G
bleeds in me and it goes

CHORUS-
C                     F         G
Give 'em the boot the roots the radicals
C                 F          G
Give 'em the boot y'know I'm a radical
C                 F         G                C      G F C 
Give 'em the boot the roots the reggae on my stereo

CHORUS-(THIS TIME IT HAS THOSE SOLOS OVER IT)
C                     F         G
Give 'em the boot the roots the radicals
C                 F          G
Give 'em the boot y'know I'm a radical
C                 F         G                C      G F C 
Give 'em the boot the roots the reggae on my stereo

END ON C-
=====================================================================
TIME BOMB-(SKA)

INTRO-
   Bm      E        Bm     E
e|--------------------------------|
B|--------------3----------55-5-3-|
G|--4-4-4-----------4-4-4---------|
D|---------22-2-------------------|

VERSE 1-

       Bm                         E
If you wanna make a move then you better come in
              Bm                     E
It's just the ability to reason that wears so thin
Bm                       E
Living and dying and the stories that are true
Bm                      E
Secret to a good life's knowing when you're through


CHORUS-

A                 D                     E               
Black coat, white shoes, black hat, Cadillac, 
          D
yeah, the boy's a time bomb
A                 D                     E               
Black coat, white shoes, black hat, Cadillac, 
          D
yeah, the boy's a time bomb


VERSE-2
           Bm                          E
Well, he's back in the hole where they got him living like a rat
Bm                    E     
But he's smarter than that, nine lives like a cat
 Bm                           E                      
 Ten years old? they take him to the youth authority home
Bm                                E
First thing you learn: you got to make it in this world alone

CHORUS-

A                 D                     E               
Black coat, white shoes, black hat, Cadillac, 
          D
yeah, the boy's a time bomb
A                 D                     E               
Black coat, white shoes, black hat, Cadillac, 
          D
yeah, the boy's a time bomb

VERSE-3

Bm                               E
Now he's gotten out, he's gotten free, he's gotta go, got a car
Bm                      E
He's 21 years old, he's runnin' numbers from the bar
Bm                  E
His pager's beepin', he's gettin' deep in
    Bm                          E
Whatever he can move on in, you know that kid's a creepin' in

CHORUS-

A                 D                     E               
Black coat, white shoes, black hat, Cadillac, 
          D
yeah, the boy's a time bomb
A                 D                     E               
Black coat, white shoes, black hat, Cadillac, 
          D
yeah, the boy's a time bomb
E
  The boy's a time bomb


SOLO:

(~=TREMOLO PICKING)

    Bm   E        Bm   E        Bm   E        Bm          E
e--------------------------------------------------------------------
B-----------3~~-2---------3~~-2---------3~~-2-3-3-2-3-3-2-3-3-2-3-3--
G---4--2-4--------4--2-4--------4--2-4-------------------------------
D--------------------------------------------------------------------
A--------------------------------------------------------------------
E--------------------------------------------------------------------
(THIS IS THE ORGAN PT)

    A        D       E     D         A           D               E  D    
e---5----5---4-------------------------------------------------0-0---
B------7---7----7--5---2-2-3-3-3-2-0-----2---3-2-----3-2-3-2-3-------
G------------------------------------2-----2-----2-------------------
D--------------------------------------------------------------------
A--------------------------------------------------------------------
E--------------------------------------------------------------------

VERSE-4

Bm                                    E
Tears come from the razor that's been tattooed below his eye
Bm                               E
His mother cries, she knows that he is strong enough to die
Bm                      E
He's rollin' in the Cadillac, it's midnight, sunroof is down
Bm                               E
Three shots ring out, the hero's dead, the new king is crowned

CHORUS-

A                 D                     E               
Black coat, white shoes, black hat, Cadillac, 
          D
yeah, the boy's a time bomb
A                 D                     E               
Black coat, white shoes, black hat, Cadillac, 
          D
yeah, the boy's a time bomb
E
  The boy's a time bomb

CHORUS-

A                 D                     E               
Black coat, white shoes, black hat, Cadillac, 
          D
yeah, the boy's a time bomb
A                 D                     E               
Black coat, white shoes, black hat, Cadillac, 
          D
yeah, the boy's a time bomb
E
  The boy's a time bomb
E                      
 ...Ooh...time bomb

END ON A-
===============================================================
OLYMPIA WA.


Intro:

        C     D    G    C (x3) C     G     C     D
e-------3-------------------------------------------     
B---1h3-3-1-1-3333-0000-1-(x3)-5-5-3-5-5-3-5-5-5-3--
G---------------------------------------------------  
D---------------------------------------------------
A---------------------------------------------------
E---------------------------------------------------

[INTRO] (x2)

VERSE (palm-muted):

G                             C
Hangin' out with Lars down on 6th street
                      G
He knew that I was in trouble
                            D
I was feeling much like the devil
                                           G
There was something burning deep inside of me

                      C
Ran into three Puerto Ricans
                           G
These girls took us to the funhouse
         D               G                D
Where we played a lonely pinball machine


CHORUS-
C              D         G        C
Hangin' on the corner of 52nd and Broadway
C           D      G                       C
Cars passin by but none of them seem to go my way
C        D            G                 C
New York City, well I wish I was on the highway
C(pm) G(pm)   D(pm)
Baa - ack to Olympia...


VERSE 2-

G                            C
I'm having a hard time understanding
                  G
It gets all too demanding
                         D
She's all gone and I'm stranded
                                 G
Something burning deep inside of me

VERSE 3-
                    C
All I know it's 4 o'clock and
                       G
She ain't never showed up and
  D                         G                 D
I watched a thousand people go home from work   Yeah!

CHORUS-
C              D         G        C
Hangin' on the corner of 52nd and Broadway
C           D      G                       C
Cars passin by but none of them seem to go my way
C        D            G                 C
New York City, well I wish I was on the highway
C(pm) G(pm)   D(pm)
Baa - ack to Olympia...

SOLO-
e|--15-15--15--15-15--15-18-18-18-18--15--15--------|
B|--15-15--15--15-15--15-17-17-17-17--15--15--------|
G|--------------------------------------------------|
D|--------------------------------------------------|
A|--------------------------------------------------|
E|--------------------------------------------------|

e|--------------------------------------------------|
B|-----------B--------------------------------------|
G|-17-15-17-17--17-15-----B---15-17-----------------|
D|----------------------17-17-----------------------|
A|--------------------------------------------------|
E|--------------------------------------------------|

e|--------------------------------------------------|
B|--------------------------------------------------|
G|--17^---17^--17-15------------------15-17-15-17^--|
D|-------------------17--17-17-17-17----------------|
A|--------------------------------------------------|
E|--------------------------------------------------|

e|----------------------------------------------------------------|
B|----------------------------------------------------------------|
G|--17^--17^-17-15-/19-19-19-19-19-19-19-19-19-19-19-19-19-19-17\-|
D|----------------------------------------------------------------|
A|----------------------------------------------------------------|
E|----------------------------------------------------------------|

VERSE 4-
G                      C
How many times will it take me
             G
Before I go crazy
              D
Before I lose everything
                                 G
Something burning deep inside of me

VERSE 5-
                      C
Ran into three Puerto Ricans
                           G
Those girls took us to the fun house
D                   G          D
I don't want to be alone again

CHORUS-
C              D         G        C
Hangin' on the corner of 52nd and Broadway
C           D      G                       C
Cars passin by but none of them seem to go my way
C        D            G                 C
New York City, well I wish I was on the highway
C(pm) G(pm)   D(pm)
Baa - ack to Olympia...

Intro:

        C     D    G    C (x3) C     G     C     D
e-------3--------------------------------------------     
B---1h3-3-1-1-3333-0000-1-(x3)-5-5-3-5-5-3-5-5-5-3-8-
G----------------------------------------------------  
D----------------------------------------------------X2
A----------------------------------------------------
E----------------------------------------------------
END-
===============================================================
LOCK,STOP AND GONE-

Intro:

C# F# C# X2

CHORUS-
C#               F#                     C#
The ending isn't here there's something wrong
C#                   F#                     C#
But it's coming real soon I lock, step, I'm gone
C#                F#                     C#
The feeling isn't fear there's something wrong
C#                       F#                     C#
It's just telling you to move I lock, step, I'm gone

VERSE 1-
C#                    E               Ab          C#
There's a fire on the corner and it's never gonna stop
C#            E            Ab        C#
Killer in the neighborhood never got caught
C#        E         Ab          C#
I lock my door step out and I'm gone
C#              E             Ab          C#
Waiting for the buses but the buses won't come

VERSE 2-
C#                F#                      C#
All the docks are quiet there's something wrong
C#                          F#                   C#
And there's no ships coming in I lock, step, I'm gone
C#                     F#                     C#
Where there once was a riot there's something wrong
C#                    F#                      C#
There's a whole lotta nothing I lock step I'm gone

VERSE 3-
C#        E              Ab            C#
Stop sign broken and the meter's going down
C#            E           Ab              C#
Wild dogs are running themselves into the ground
C#             E              Ab        C#
Everything was clear for that moment in time
C#              E    Ab         C#
If I don't come back throw me a line

CHORUS-
C#               F#    F#  C#
The ending isn't here
C#                   F#    F#  C#
But it's coming real soon 
C#                F#    F#  C#
The feeling isn't fear
C#                       F#    F#  C#
It's just telling you to move

the solo goes something like this i guess:

e---------------------
B---------------------
G-6-8-6-8-6-8-6-8-6-8-
D---------------------
A---------------------
E---------------------

(BASS PT)

e-------------------------
B-------------------------
G---6---6---6---6-8-9-8-6-
D-8---8---8---8-----------
A-------------------------
E-------------------------

(BASS PT-2)


E B F# Ab
E B F# Ab
E B F# Ab A B

VERSE 4-
C#        E              Ab            C#
Stop sign broken and the meter's going down
C#            E           Ab              C#
Wild dogs are running themselves into the ground
C#             E              Ab        C#
Everything was clear for that moment in time
C#              E    Ab         C#
If I don't come back throw me a line

VERSE 5-
C#                F#                      C#
All the docks are quiet there's something wrong
C#                          F#                   C#
And there's no ships coming in I lock, step, I'm gone
C#                     F#                     C#
Where there once was a riot there's something wrong
C#                    F#                      C#  
There's a whole lotta nothing I lock step I'm gone

(END ON C#)
============================================================
============================================================
JUNKIE MAN

INTRO\CHORUS-A D on GTR 2-

|-------5-----5-----5-----5-------------5-----5-----5---5---|
|----------8-----8-----8-----8-------------7-----7----7---7-|
|---6------------------------------7------------------------|
|-----------------------------------------------------------|
|-----------------------------------------------------------|
|-----------------------------------------------------------|

VERSE 1-
A
the common man doesn't suffer pain like this
D
only the soul that has never been kissed
A
let us adore our beautiful son
D
he's ridin on the rivers of babylon
A
bootin up and shootin up bring on the brightness see the
D
son of god is comin up and i see a likeness
A
internalize the lunacy the misery is showin when you're
D
brought up you're caught up in a system that is goin

PRE CHORUS-
F#                     D
no one answeres no one takes that call from you (repeat)then E

CHORUS-(A D)+ INTRO)
junkyman tell em what your story is

VERSE 2-(SAME)
water water water water i desire
some parents house is on fire
slowly the house gonna burn to the ground
the neighborhood will watch without a sound
will someone be a witness please tell me that he's crazy
but he's not and they know that and they can't 
get him cause he's not crazy
beat him lock him knock him take away his authority
hit em ship em club em, submitted conformity

PRE CHORUS-
F#                     D
no one answeres no one takes that call from you(repeat)then E

CHORUS-(A D)+ INTRO)
junkyman tell em what your story is

BRIDGE-
my hand went blind, clairvoyant, pure in the veins
i make love to my trance sister went on
and my trance parents see from the balcony
i looked out on the big field
it opens like the cover of an old bible
(play prechorus riff)
and out come the wolves! out come the wolves
their paws trampling in the snow the alphabet
i stand on my head and watch it all go away

VERSE 3
bootin up shootin up and bring on the brightness
see the sun of god is comin up and there is a likeness
internalize the lunacy the misery is showin
when you're brought up you're caught up in a system that is goin

PRE CHORUS-
F#                     D
no one answeres no one takes that call from you(repeat)then E

CHORUS-(A D)+ INTRO)
junkyman tell em what your story is

END-
======================================================================
LISTED M.I.A-

INTRO-X2

e---------------------------------
B-7-7-7-7-8-8-8-8-7-7-7-7-7-5-3-0-
G---------------------------------
D---------------------------------
A---------------------------------
E---------------------------------

VERSE 1-

B       E  B                E B
Goddamn it man almost had it
B                  E B                    E B
Stuck in the sewer beneath all the maggots
B              E B    
I ain't fooling  I been pursuing
E B                 E     B              E
A way to get out of these dirty old ruins

CHORUS-

B   Eb               E                  F#
I'm checking out I'm never coming back again
B   Eb               E          F#
I'm checking out I'm listed M.I.A.

VERSE 2-

B       E  B                E B
Goddamn it man almost had it
B                      E B                  E B
They threw out the door  calling me a faggot
B            E B
I ain't done I only yet begun
E    B                    E     B              E
West Oakland is the place where I'm coming from

CHORUS-

B   Eb               E                  F#
I'm checking out I'm never coming back again
B   Eb               E          F#
I'm checking out I'm listed M.I.A.

SOLO-
e----------------------------------------------
B----------------------------------------------
G---------7-7-7-9-9-7------------7-7-7-9-9-7---
D-7-7-8-9-------------9--7-7-8-9-------------9-
A----------------------------------------------
E----------------------------------------------

e-----------------------------------------------
B-7-7-7-7-8-8-8-8-7-7-7-7-7-5-3-0-7-7-7-7-8-8-8-
G-----------------------------------------------
D-----------------------------------------------
A-----------------------------------------------
E-----------------------------------------------

e|----------------------------------------------
B|-8-7-7-7-7-7-5-3-/----------------------------
G|----------------------------------------------
D|----------------------------------------------
A|----------------------------------------------
E|----------------------------------------------

BRIDGE-

A      F# B
Oh yeah
A      F# B
Oh yeah
A      F# B
Oh yeah

B A D F#

VERSE 3-
B       E  B                E
Goddamn it man almost had it
E      B                 E B                E B
Well I did it again yeah I do it outta habit
B       E B              E
I'm numb  it ain't no fun
B                  E        B             E B
I'm less than zero when you add up the sum

play this during the 2nd part of the verse over the chords:

E-7-7-7-0-
B-7-7-7-0-
G---------
D---------
A---------
E---------

CHORUS-

B                    E B                     E
I'm checking out yeah  it ain't no doubt yeah
E B                          E     B              E B
A courtship built from anger is to what it amounts
B              E B              E
I almost had it  I almost had it
E B                 E 
I came so close man I almost had it 

CHORUS-

B   Eb               E                  F#
I'm checking out I'm never coming back again
B   Eb               E          F#
I'm checking out I'm listed M.I.A.

CHORUS-

B   Eb               E                  F#
I'm checking out I'm never coming back again
B   Eb               E          F#   B E B
I'm checking out I'm listed M.I.A.

END ON B-
=================================================================
RUBY SOHO-

INTRO-
e|----------------------------|
B|----------------------------|
G|---0-----0-----0-----0------|
D|-----0-----0-----0-----0----|
A|-------2-----3--------------|
E|-3-----------------3--------|

VESRE 1-

C          D      G                       C
Echoes of reggae coming trough my bedroom wall
C              D                G                    C
Havin' a party up next door but I'm sitting here all alone
C                 D              G                C
Two lovers in the bedroom and the others start to shout
C                    G               D
All I've got is this blank stare And that don't carry no clout at all

CHORUS-

G    B      C  G          
Destination unknown
G    B         C      G
Ruby Ruby Ruby Ruby Soho
G    B      C  G          
Destination unknown
G    B         C      G
Ruby Ruby Ruby Ruby Soho

VERSE 2-

C           D      G                     C 
He's singing   and she's there to lend a hand
C             D                       G                   C
He's seen his name on the marquee but she will never understand
C                D          G                              C
Once again he's leaving and she's there with a tear in her eye
C               G                 D
Embraces with a warm gesture it's time, time to say goodbye

CHORUS-

G    B      C  G          
Destination unknown
G    B         C      G
Ruby Ruby Ruby Ruby Soho
G    B      C  G          
Destination unknown
G    B         C      G
Ruby Ruby Ruby Ruby Soho

Bridge 

C  Bb  C  Bb  G  (x2)

e|-------------------2/33-2/33-2/33-2/33-2/33-2/33-|
B|-------------------2/33-2/33-2/33-2/33-2/33-2/33-|
G|-5-5-3-5-3-5-5-3-5-------------------------------|
D|-5-5-3-5-3-5-5-3-5-------------------------------|x2
A|-3-3-1-3-1-3-3-1-3-------------------------------|
E|-------------------------------------------------|

VERSE 3- 

C                  D             G                        C
Ruby's heart ain't beating cause she knows the feeling is gone
C             D                      G                 C
She's not the only one who knew that there's something wrong
C                     D           G                         C
Little lover's in the distance as she wipes a tear from her eye
C             G                        D
Ruby's fading out she disappears, it's time, time to say goodbye

CHORUS-

G    B      C  G          
Destination unknown
G    B         C      G
Ruby Ruby Ruby Ruby Soho
G    B      C  G          
Destination unknown
G    B         C      G
Ruby Ruby Ruby Ruby Soho



G    B         C      G
Ruby Ruby Ruby Ruby Soho
G    B         C      G
Ruby Ruby Ruby Ruby Soho
G    B         C      G
Ruby Ruby Ruby Ruby Soho
G    B         C      G
Ruby Ruby Ruby Ruby Soho

CHORUS-

G    B      C  G          
Destination unknown
G    B         C      G
Ruby Ruby Ruby Ruby Soho
G    B      C  G          
Destination unknown
G    B         C      G
Ruby Ruby Ruby Ruby Soho

End on G
============================================================== 
DALY CITY TRAIN-

VERSE 1-                     
G                      F            C          G
He was an artist and a writer and a poet and a friend
G                       F
In a man's life he will take a fall
        C                          G
But how low he goes well that just depends

VERSE 2-
G                         F
He's shooting dope in the men's room
       C                 G
At the station Daly City train
G                                  F
Have you ever seen an angel well I know I have
                C                G
You see they'll stay for a while and they fly away

CHORUS-
C                                         G
Jackyl had a beer in his hand last time I seen him
C
When he rolled the dice you know he never thought twice
G
Never thought twice about being here

C                                         G
Jackyl had a beer in his hand last time I seen him
C
When he rolled the dice you know he never thought twice
G
Never thought twice about being here

VERSE 3-
G                F
Some grow up and some grow old
    C                            G
But what about the kid who never learned the rules
G                     F
Spent all these years on this earth
         C                      G
When you look back it's just a flicker of time

VERSE 4-
G                              F
Jackyl was one of the ones who perished
       C                               G
He was one of the ones who was already saved
G                         F
Through all this evil and wreckage
C                           G
He maintained a sense of himself

CHORUS-
C                                         G
Jackyl had a beer in his hand last time I seen him
C
When he rolled the dice you know he never thought twice
G
Never thought twice about being here

CHORUS-
C                                         G
Jackyl had a beer in his hand last time I seen him
C
When he rolled the dice you know he never thought twice
G
Never thought twice about being here

Solo:

e--------------------------------------
B--------------------------------------
G-0-7-7-5-2-2-5-2-0-0-7-7-5-2-2-5-2-0--
D--------------------------------------
A--------------------------------------
E--------------------------------------

VERSE 5-
G                                  F
Some men are in prison though they walk the streets at night
      C                            G
Other men who got the lockdown are free as a bird in flight...

C F G F F G F C               

CHORUS-
C                                         G
Jackyl had a beer in his hand last time I seen him
C
When he rolled the dice you know he never thought twice
G
Never thought twice about being here

C                                         G
Jackyl had a beer in his hand last time I seen him
C
When he rolled the dice you know he never thought twice
G
Never thought twice about being here

C F G F F G F C

END-
===============================================================
JOURNEY TO THE END OF EAST BAY-

BASS INTRO-
e|-----------------------------------------------|
B|-----------------------------------------------|
G|-------------4---4---------6-9-6---------------|
D|---2-3-4-5-5---5---5-5-5/7-------7-3-----------|
A|-3-------------------------------------0-1-2---|
E|-------------------------------------1---------|

e|--------------------------------------------------|
B|--------------------------------------------------|
G|--------------------------------------------------|
D|---2-3-4-5-5-5-5-5-5-5-3-------------2p0----------|
A|-3-------------------------0-1-2-3-3-----3p0------|
E|-------------------------1--------------------3p0-|

e|-----------------------------------------------|
B|-----------------------------------------------|
G|-------------4---4---------6-9-6---------------|
D|---2-3-4-5-5---5---5-5-5/7-------7-3-----------|
A|-3-------------------------------------0-1-2---|
E|-------------------------------------1---------|

e|--------------------------------------------------------|
B|--------------------------------------------------------|
G|--------------------------------------------------------|
D|---2-3-4-5-5-5-5-5-5-5-3-3-3-3-2-2-2-2-0-0-0-0----------|
A|-3---------------------------------------------3p0------|
E|----------------------------------------------------3p0-|

(INTRO-PT 2-PLAY AS OCTIVES)
C  G  A  F
C  G  F
C  G  A  F
C  G  F   

VERSE 1-
C         G                A               F
Reconcile to the belief consumed in sacred ground for me
C                     G
There wasn't always a place to go
              A                F
But there was always an urgent need to belong

C                   G
All these bands and all this people
A                     F
All these friends and we were equals but
C                 G                   A      F
Добавлено: 01.10.2013
Другие материалы по этой песне:
  • Аккорды и текст

Страница создана 16.08.2013
http://primanota.ru/rancid/and-out-come-the-wolves-chords.htm
Привет, Гость.
Предлагаем пройти революционный курс по гитаре.
Подарок от PrimaNota.Ru, забирай!