PrimaNota.ru - самый крупный в мире бесплатный архив песенных текстов, аккордов, табулатур и нот


Ramshackle Glory - More About Alcoholism - бас-таба, видео

Регистрация Запомнить меня
Войти через:  Facebook Google Twitter Vk Yandex Mail.ru

Ramshackle Glory - More About Alcoholism - бас-таба, видео

Печатать
Просмотров: 43
                More About Alcoholism - Ramshackle Glory
-------------------------------------------------------------------------------
Album: Live the Dream 

Tuning:Standard

  Intro (0:09):
G|-----------------------------------------------------------|
D|------------------------7-777-77-777-5---------------------|
A|-5-555-55-555-8-8-(x3)-----------------8-------------------|
E|-----------------------------------------------------------| x2




  Pre-verse (0:27):
G|-------------------------------------------|
D|-------------------------------------------|
A|-5--5-7--7---------------------4-----------|
E|-----------3--3-5--5-5-55-5-57-------------| 

  (0:37):
G|-----------------------------------------------------------|
D|-----------------------------------------------------------|
A|5-5-555---------2-2-220-------------------2-5------4-------|
E|--------5-5-555--------3--3-3333-2-2---3-3-----5-57--------| 




  Verse (0:46):
G|-----------------------------------------------------------|
D|-----------------------------------------------------------|
A|-5-55-5-----------------------3-33-------------------------|
E|---------1-11-1-3-33-3--6-66-------------------------------| x2

  (0:55):
G|-----------------------------------------------------------|
D|-----------------5-55555-8-88-10-1010----------------------|
A|-5-55555-8-88888-------------------------------------------|
E|-----------------------------------------------------------| x2



  Intro (1:04)
G|-----------------------------------------------------------|
D|------------------------7-777-77-777-5---------------------|
A|-5-555-55-555-8-8-(x3)-----------------8-------------------|
E|-----------------------------------------------------------| x2



   Pre-Verse/Bridge (1:22)
G|-------------------------------------------|
D|-------------------------------------------|
A|-5--5-7--7---------------------4-----------|
E|-----------3--3-5--5-5-55-5-57-------------|

  (1:32):
G|-------------------------------------------------------------------|
D|-----------------------------------5-55555-5-55555-7-77777-7-5-4---|
A|---5-55555-5-55555-7-77777-7-77777-------------------------------7-|
E|-------------------------------------------------------------------|

  (1:41):
G|-----------------------------------------------------------|
D|-----------------------------------------------------------|
A|-5-5-555---------.----------------------------4------------|
E|---------5-5-555-7----3333-2-2---3-33-3--5-57--------------|

                   

  Verse (1:50):
G|-----------------------------------------------------------|
D|-----------------------------------------------------------|
A|-5-55-5-----------------------3-33-------------------------|
E|---------1-11-1-3-33-3--6-66-------------------------------| x2

  (2:00):
G|-----------------------------------------------------------|
D|-----------------5-55555-8-88-10-1010----------------------|
A|-5-55555-8-88888-------------------------------------------|
E|-----------------------------------------------------------| x2


                   
  Outro (2:09):
G|-----------------------------------------------------------|
D|-----------------------------------------------------------|
A|-5*-5*-----------5-8-8-------------------------------------|
E|-----------------------------------------------------------| x4
   *Play these notes down an octave if using a 5 string

  (2:18):
G|-----------------------------------------------------------|
D|---------4-4--4445-5-5--557-7--777-------------------------|
A|-5-5--555--------------------------------------------------|
E|-----------------------------------------------------------| x2
  (2:27):
G|-----------------------------------------------------------|
D|--------4-4-4445-5-5557-5-4--------------------------------|
A|-5-5-555---------------------7-----------------------------|
E|-----------------------------------------------------------| 

G|-----------------------------------------------------------|
D|---------4-4--4445-5-5--557-7--777-------------------------|
A|-5-5--555--------------------------5-----------------------|
E|-----------------------------------------------------------|


------------------------------
Legend:
.
7 = Staccato
Добавлено: 23.05.2016
Другие материалы по этой песне:
  • Аккорды и текст

Страница создана 23.05.2016
http://primanota.ru/ramshackle-glory/more-about-alcoholism-chords.htm
Привет, Гость.
Предлагаем пройти революционный курс по гитаре.
Подарок от PrimaNota.Ru, забирай!