PrimaNota.ru - самый крупный в мире бесплатный архив песенных текстов, аккордов, табулатур и нот


Ramones - Now I Wanna Sniff Some Glue Live - таба, видео

Регистрация Запомнить меня
Войти через:  Facebook Google Twitter Vk Yandex Mail.ru

Ramones - Now I Wanna Sniff Some Glue Live - таба, видео

Печатать
Просмотров: 129
-----------------------------------------------------------------------------
Song name: NOW I WANNA SNIFF SOME GLUE
Artist: RAMONES
Album: IT'S ALIVE (1979)
-----------------------------------------------------------------------------

Tuning: STANDARD
Tabbed by: headbanger_89


:: Verse ::

G5          F5               
Now I wanna sniff some glue!
G5               F5
Now I wanna have something to do!
G5                 F5               
All the kids wanna sniff some glue!
G5                      F5
All the kids wanna have something to do!

e|--------------------------------------------------------------------------|
B|--------------------------------------------------------------------------|
G|--------------------------------------------------------------------------|
D|--5--5-5-5-5-5-5-3--3-3-3-3-3-3-5--5-5-5-5-5-5-3--3-3-3-3-3-3-------------|
A|--5--5-5-5-5-5-5-3--3-3-3-3-3-3-5--5-5-5-5-5-5-3--3-3-3-3-3-3-------------|
E|--3--3-3-3-3-3-3-1--1-1-1-1-1-1-3--3-3-3-3-3-3-1--1-1-1-1-1-1-------------|

e|--------------------------------------------------------------------------|
B|--------------------------------------------------------------------------|
G|--------------------8--------7--------------------------------------------|
D|--5--------3--------8--------7--------------------------------------------|
A|--5--------3--------6--------5--------------------------------------------|
E|--3--------1--------------------------------------------------------------|

--
(Voice only)

Now I wanna sniff some glue!
Now I wanna have something to do!
All the kids wanna sniff some glue!
All the kids wanna have something to do!
--

e|--------------------------------------------------------------------------|
B|--------------------------------------------------------------------------|
G|--------------------8--------7--------------------------------------------|
D|--5--------3--------8--------7--------------------------------------------|
A|--5--------3--------6--------5--------------------------------------------|
E|--3--------1--------------------------------------------------------------|

One, two, three, four, five, six, seven, height...!


:: Solo ::

(X 4)
e|--------------------------------------------------------------------------|
B|--------------------------------------------------------------------------|
G|--------------------------------------------------------------------------|
D|--------------------------------------------------------------------------|
A|--------------------8-h10-------------------8-----------------------------|
E|--10-10-10-10-8-h10-------10-10-10-10-8-h10-------------------------------|


:: Bridge ::

e|--------------------------------------------------------------------------|
B|--------------------------------------------------------------------------|
G|--------------------8--------7--------------------------------------------|
D|--5--------3--------8--------7--------------------------------------------|
A|--5--------3--------6--------5--------------------------------------------|
E|--3--------1--------------------------------------------------------------|


:: Verse ::

G5          F5               
Now I wanna sniff some glue!
G5               F5
Now I wanna have something to do!
G5                 F5               
All the kids wanna sniff some glue!
G5                      F5
All the kids wanna have something to do!

e|--------------------------------------------------------------------------|
B|--------------------------------------------------------------------------|
G|--------------------------------------------------------------------------|
D|--5--5-5-5-5-5-5-3--3-3-3-3-3-3-5--5-5-5-5-5-5-3--3-3-3-3-3-3-------------|
A|--5--5-5-5-5-5-5-3--3-3-3-3-3-3-5--5-5-5-5-5-5-3--3-3-3-3-3-3-------------|
E|--3--3-3-3-3-3-3-1--1-1-1-1-1-1-3--3-3-3-3-3-3-1--1-1-1-1-1-1-------------|

G5          F5               
Now I wanna sniff some glue!
G5               F5
Now I wanna have something to do!
G5                 F5               
All the kids wanna sniff some glue!
G5                      F5
All the kids wanna have something to do!

e|--------------------------------------------------------------------------|
B|--------------------------------------------------------------------------|
G|--------------------------------------------------------------------------|
D|--5--5-5-5-5-5-5-3--3-3-3-3-3-3-5--5-5-5-5-5-5-3--3-3-3-3-3-3-------------|
A|--5--5-5-5-5-5-5-3--3-3-3-3-3-3-5--5-5-5-5-5-5-3--3-3-3-3-3-3-------------|
E|--3--3-3-3-3-3-3-1--1-1-1-1-1-1-3--3-3-3-3-3-3-1--1-1-1-1-1-1-------------|


:: Outro ::

(X 3)
e|--------------------------------------------------------------------------|
B|--------------------------------------------------------------------------|
G|--------------------------------8--8-8-8-8-8-8-7--7-7-7-7-7-7-------------|
D|--5--5-5-5-5-5-5-3--3-3-3-3-3-3-8--8-8-8-8-8-8-7--7-7-7-7-7-7-------------|
A|--5--5-5-5-5-5-5-3--3-3-3-3-3-3-6--6-6-6-6-6-6-5--5-5-5-5-5-5-------------|
E|--3--3-3-3-3-3-3-1--1-3-1-1-1-1-------------------------------------------|

e|--------------------------------------------------------------------------|
B|--------------------------------------------------------------------------|
G|--------------------------------8--8-8-8-8-8-8-7--------------------------|
D|--5--5-5-5-5-5-5-3--3-3-3-3-3-3-8--8-8-8-8-8-8-7--------------------------|
A|--5--5-5-5-5-5-5-3--3-3-3-3-3-3-6--6-6-6-6-6-6-5--------------------------|
E|--3--3-3-3-3-3-3-1--1-3-1-1-1-1-------------------------------------------|

EDIT: Now the tab is OK!

Have fun! :)






=============================================================================
| /  slide up
| \  slide down
| h  hammer-on
| p  pull-off
| ~  vibrato
| +  harmonic
| x  Mute note
=============================================================================
Добавлено: 27.06.2012
Другие материалы по этой песне:

Страница создана 27.06.2012
http://primanota.ru/ramones/now-i-wanna-sniff-some-glue-live-chords.htm
Привет, Гость.
Предлагаем пройти революционный курс по гитаре.
Подарок от PrimaNota.Ru, забирай!