PrimaNota.ru - самый крупный в мире бесплатный архив песенных текстов, аккордов, табулатур и нот


Ramones - Mental Hell - текст песни, таба, видео

Регистрация Запомнить меня
Войти через:  Facebook Google Twitter Vk Yandex Mail.ru

Ramones - Mental Hell - текст песни, таба, видео

Печатать
Просмотров: 68
MAKE SURE TO LISTEN TO THE SONG IN ORDER TO GET THE RHYTHM RIGHT PEOPLE! 


Intro/verse
e|---------------------------------------------------------------------|
B|---------------------------------------------------------------------|
G|---------------------------------------------------------------------|
D|---------------------------------------------------------------------|
A|10-10 10-8-8--10-10-10-8-8--10-10--10-8-8--10-10-10-8-8--------------|
E|8--8--8--6-6---8--8--8-6-6--8---8--8--6-6--8--8--8--6-6--------------|

e|----------------------------------------------------------------------|
B|----------------------------------------------------------------------|
G|----------------------------------------------------------------------|
D|------------------------8----------------------------------------------|
A|6--6-6-6-6-6-6--8--8-8--6--8------------------------------------------|
E|4--4-4-4-4-4-4--6--6-6-----6------------------------------------------|

  Chorus
e|-------------------------------------------------------------------------------|
B|-------------------------------------------------------------------------------|
G|-------------------------------------------------------------------------------|
D|-------------------------------------------------------------------------------|
A|6--6-6-6-6-6-6--6--6-6-6-6-6-6---10--10-10-10-10-10-10--10--10-10-10-10-10-10--|
E|4--4-4-4-4-4-4--4--4-4-4-4-4-4----8---8--8--8--8--8--8---8---8--8--8--8-8--8---|

e|--------------------------------|
B|--------------------------------|
G|--------------------------------|
D|--------------------------------|
A|6--6-6-6-6-6-6---3--3-3-3-3-3-3-|
E|4--4-4-4-4-4-4---1--1-1-1-1-1-1-/


E/------------------------------------------------------------------
B/------------------------------------------------------------------
G/------------------------------------------------------------------
D/------------------------------------------------------------------
A/-5--5-5-5-5-5-5--5--5-5-5-5-5-5--5--5-5-5-5-5-5--5--5-5-5-5-5-5--|
E/-3--3-3-3-3-3-3--3--3-3-3-3-3-3--3--3-3-3-3-3-3--3--3-3-3-3-3-3--|



************************************

| /   slide up
| \   slide down
| h   hammer-on
| p   pull-off
| ~   vibrato
| +   harmonic
| x   Mute note
| b   Bend
| pb  Pre-bend
| br  Bend release
| pbr Pre-bend release
| brb Bend release bend

************************************
Добавлено: 07.02.2016
Другие материалы по этой песне:

Страница создана 26.03.2012
http://primanota.ru/ramones/mental-hell-chords.htm
Привет, Гость.
Предлагаем пройти революционный курс по гитаре.
Подарок от PrimaNota.Ru, забирай!