PrimaNota.ru - самый крупный в мире бесплатный архив песенных текстов, аккордов, табулатур и нот


Rammstein - Wollt Ihr Das Bett In Flammen Sehen - аккорды и текст, таба, бас-таба, видео

Регистрация Запомнить меня
Войти через:  Facebook Google Twitter Vk Yandex Mail.ru

Rammstein - Wollt Ihr Das Bett In Flammen Sehen - аккорды и текст, таба, бас-таба, видео

Печатать
Просмотров: 1162
Авторы музыки: Christian Lorenz, Richard Z. Kruspe, Paul Landers, Oliver Riedel, Christoph Schneider, Till Lindemann
Авторы текста: Christian Lorenz, Richard Z. Kruspe, Paul Landers, Oliver Riedel, Christoph Schneider, Till Lindemann
Wollt Ihr Das Bett In Flammen Sehen
Rammstein
Wollt ihr das Bett in Flammen sehen
*+*+*+*+* R A M M S T E I N *+*+*+*+*
This is the CORRECT version of "my" song, the previous one
contained some little mistakes
key of D

[MAIN RIFF:]
(guitar 1)
|-------------------|
|-------------------|
|-------------------| 16x
|---0--1--0-(0)-----|
|----------------3--|
|-------------------|

   C D Eb D    C D  Eb D
|----------------------------|
|----------------------------|
|--5-7--8-7-----5-7--8-7-----|
|--5-7--8-7-----5-7--8-7-----|
|--3-5--6-5-----3-5--6-5-----|
|----------------------------|

(guitar 2)
  D               A  Bb A
|----------------------------|
|----------------------------|
|--7--------------14-15-14---|
|--7--(let ring)--14-15-14---|
|--5--------------12-13-12---|
|----------------------------|

[BRIDGE:]
(guitar 1)
   D  D   D     Eb D
|----------------------------|
|----------------------------|
|--7-x-7-x-7-x-x-8-7---------|
|--7-x-7-x-7-x-x-8-7---------|
|--5-x-5-x-5-x-x-6-5---------|
|----------------------------|
(Sex ist eine Schlacht...)

desertfox1984@hotmail.com



     
Добавлено: 04.12.2013
Другие материалы по этой песне:

Страница создана 02.03.2012
http://primanota.ru/rammstein/wollt-ihr-das-bett-in-flammen-sehen-chords.htm
Привет, Гость.
Предлагаем пройти революционный курс по гитаре.
Подарок от PrimaNota.Ru, забирай!