PrimaNota.ru - самый крупный в мире бесплатный архив песенных текстов, аккордов, табулатур и нот


Rammstein - Spiel Mit Mir - аккорды и текст, таба, бас-таба, видео

Регистрация Запомнить меня
Войти через:  Facebook Google Twitter Vk Yandex Mail.ru

Rammstein - Spiel Mit Mir - аккорды и текст, таба, бас-таба, видео

Печатать
Просмотров: 1812
Spiel Mit Mir
Rammstein
		   Rammstein has lots of Synths in their songs, and I haven't been able to fugire them out, though it sounds just as good without them, or with a small fill/solo.
Anyway, let's play this song.

Intro:
Synthesizer & 'Muffled' Drum

Main Riff:
          (x4)

e----------------------------------------------
B----------------------------------------------
G----------------------------------------------
D----------------------------------------------
A--2-2-2--2-2-2--2-2-2--3-3-3--3-3--4-4--5-5---
E--0-0-0--0-0-0--0-0-0--1-1-1--1-1--2-2--3-3---
PM . . .  . . .  . . .  . . .  . .  . .  . .

 (x3)

e--------------------------------------------------
B--------------------------------------------------
G--------------------------------------------------
D--2-2-2--2-2-2--2-2-2--2-2-2--2-2-3--3-3----------
A--0-0-0--0-0-0--0-0-0--0-0-0--0-0-1--1-1-5--5-5---
E-----------------------------------------3--3-3---
PM . . .  . . .  . . .  . . .  . . .  . . .  . .

Chorus:
(x3)
e--------------------------------------------------
B--------------------------------------------------
G--------------------------------------------------
D--4-4-4-----------------2-2-2--2-2----------------
A--2-2-2---2-2-2--2-2-2--0-0-0--0-0-3-3-3--2-2-2---
E----------0-0-0--0-0-0-------------1-1-1--0-0-0---
PM . . .   . . .  . . .  . . .  . . . . .  . . .

e---------------------------------------
B---------------------------------------
G---------------------------------------
D--4-4-4-----------------2-2-2--2-2-----
A--2-2-2---2-2-2--2-2-2--0-0-0--0-0-3---
E----------0-0-0--0-0-0-------------1---
PM . . .   . . .  . . .  . . .  . .

Interlude:
Synth, Synthesizer

Solo (Guitar 1 & 2):


e--------------------------------------------
B--11p0-12p0-12p0-12p0-12p0-12p0-12p0-12p0---
G--------------------------------------------
D--------------------------------------------
A--------------------------------------------
E--------------------------------------------

e--------------------------------------------
B--12p0-12p0-12p0-12p0-12p0-12p0-12p0-12p0---
G--------------------------------------------
D--------------------------------------------
A--------------------------------------------
E--------------------------------------------

e--------------------------------------------
B--11p0-12p0-12p0-12p0-12p0-12p0-12p0-12p0---
G--------------------------------------------
D--------------------------------------------
A--------------------------------------------
E--------------------------------------------

e--------------------------------------------
B--12p0-12p0-12p0-12p0-12p0-12p0-12p0-12p0---
G--------------------------------------------
D--------------------------------------------
A--------------------------------------------
E--------------------------------------------

e--------------------------------------------
B--11p0-12p0-12p0-12p0-12p0-12p0-12p0-12p0---
G--------------------------------------------
D--------------------------------------------
A--------------------------------------------
E--------------------------------------------

e--------------------------------------------
B--12p0-12p0-12p0-12p0-12p0-12p0-12p0-12p0---
G--------------------------------------------
D--------------------------------------------
A--------------------------------------------
E--------------------------------------------

e--------------------------------------------
B--11p0-12p0-12p0-12p0-12p0-12p0-12p0-12p0---
G--------------------------------------------
D--------------------------------------------
A--------------------------------------------
E--------------------------------------------

e---------------------------------------
B--12p0-12p0-12p0-12p0-12p0-12p0-13~~---
G---------------------------------------
D---------------------------------------
A---------------------------------------
E---------------------------------------

Fill:
e---------
B---------
G---------
D--3------
A--1--5---
E-----3---

Song structure:
Intro
Main Riff x2     (01:02)
Chorus x2        (02:16)
Interlude        (02:40)
Solo             (02:52)
Main Riff        (03:17)  first bar only
Fill             (03:46)
Main Riff        (03:48)  second bar 1 time instead of 3 times
Chorus x2        (03:55)     
Добавлено: 15.11.2013
Другие материалы по этой песне:

Страница создана 29.02.2012
http://primanota.ru/rammstein/spiel-mit-mir-chords.htm
Привет, Гость.
Предлагаем пройти революционный курс по гитаре.
Подарок от PrimaNota.Ru, забирай!