PrimaNota.ru - самый крупный в мире бесплатный архив песенных текстов, аккордов, табулатур и нот


Rammstein - Liese - текст песни, бас-таба, видео

Регистрация Запомнить меня
Войти через:  Facebook Google Twitter Vk Yandex Mail.ru

Rammstein - Liese - текст песни, бас-таба, видео

Печатать
Просмотров: 1887
Title: Liese
Artist: Rammstein
Album: Liebe ist für alle da


Intro
F|----------------------------|
C|----------------------------|
G|0~--0~--0~--0~--2~--2~--5~--|
C|----------------------------|

Verse
F|-------------|-------------|
C|-------------|-------------|
G|----4~----4--|----4~----54-|
C|4-4-----4--4-|4-4-----4----|

Chorus/Bridge
F|--------|--------|--------|--------|
C|--------|--------|--------|--------|
G|--------|--------|--------|--------|
C|4~--4-4-|2~--2-2-|0~--0-0-|0~--0-0-|

F|--------|--------|--------|--------|
C|--------|--------|--------|--------|
G|--------|--------|--------|--------|
C|4~--4-4-|2~--2-2-|0~--0-0-|0~~~----|
Добавлено: 08.04.2012
Другие материалы по этой песне:
  • Аккорды и текст

Страница создана 08.04.2012
http://primanota.ru/rammstein/liese-chords.htm
Привет, Гость.
Предлагаем пройти революционный курс по гитаре.
Подарок от PrimaNota.Ru, забирай!