PrimaNota.ru - самый крупный в мире бесплатный архив песенных текстов, аккордов, табулатур и нот


Ramin Djawadi - Game Of Thrones - Chaos Is A Ladder - таба, видео

Регистрация Запомнить меня
Войти через:  Facebook Google Twitter Vk Yandex Mail.ru

Ramin Djawadi - Game Of Thrones - Chaos Is A Ladder - таба, видео

Печатать
Просмотров: 254
Уроки эстрадного вокала в Санкт-Петербурге
This is the tab for "Chaos Is A Ladder", by Ramin Djawadi, off the Game Of Thrones Soundtrack.This song is also
known as the theme of Petyr "Littlefinger" Baelish. This is my first published tab so my apologies if there are
any errors. Please note that this piece was tabbed for guitar only, so any percussion or additional sounds are
not accounted for.

This is tabbed from the version on Spotify, from the series 3 album.

(0:00 - 0:49)
-------------------------------------------------------------------------------------------
--------------------------------------------------------------------0----------------------
---4---0------------7---4---0--------------------------------------------------------------
-----------4----------------------4-------9---11---5---4-----------------------------------
-------------------------------------------------------------------------------------------
---------------------------------------------------------------8---7-----------------------

(0:49 - 1:17)
-------------------------------------------------------------------------------------------
-------------------------------------------------------------------------------------------
-------------------------------------------------------------------------------------------
---5---4--------12---9---5---4-------------------------------------------------------------
-------------------------------------------------------------------------------------------
------------------------------------10-----------------------------------------------------

(1:17 - 1:46)
-------------------------------------------------------------------------------------------
-------------------------------------------------------------------------------------------
-------------------------------------------------------------------------------------------
-------------------------------------------------------------------------------------------
-14---10---9---17-----14---10---9---14---16---10---9---17---14---10---9---14---------------
-------------------------------------------------------------------------------------------

-------------------------------------------------------------------------------------------
-------------------------------------------------------------------------------------------
-------------------------------------------------------------------------------------------
-------------------------------------------------------------------------------------------
---16---14---10---9---17---14---10---9---11---12---10---9---5---2--------------------------
--------------------------------------------------------------------3---2---0(let ring)----

(1:46 - 2:31)
-------------------------------------------------------------------------------------------
--12---8---7---12---12---8---7---12---14---8---7---15---12---8---7---12---14---8---7---15--
-------------------------------------------------------------------------------------------
-------------------------------------------------------------------------------------------
-------------------------------------------------------------------------------------------
-------------------------------------------------------------------------------------------

-------------------------------------------------------------------------------------------
--12---8---7---12---14---8---7---12---12---8---7---14---12---8---7---15---12---8---7---12--
-------------------------------------------------------------------------------------------
-------------------------------------------------------------------------------------------
-------------------------------------------------------------------------------------------
-------------------------------------------------------------------------------------------

-------------------------------------------------------------------------------------------
--14---8---7---15---12---8---7---12---14-(play until break)--------------------------------
-------------------------------------------------------------------------------------------
-------------------------------------------------------------------------------------------
-------------------------------------------------------------------------------------------
-------------------------------------------------------------------------------------------

(2:31 - 2:58
-------------------------------------------------------------------------------------------
-------------------------------------------------------------------------------------------
---4------------7--4-----------4---6------------7---4--------------------------------------
-------5---4-----------5---4-----------5---4------------5---4------------------------------
-----------------------------------------------------------------8---7---------------------
-------------------------------------------------------------------------------------------





Добавлено: 16.06.2016
Другие материалы по этой песне:
  • Аккорды и текст

Страница создана 16.06.2016
http://primanota.ru/ramin-djawadi/game-of-thrones-chaos-is-a-ladder-chords.htm
Привет, Гость.
Предлагаем пройти революционный курс по гитаре.
Подарок от PrimaNota.Ru, забирай!