PrimaNota.ru - самый крупный в мире бесплатный архив песенных текстов, аккордов, табулатур и нот


Ramel Brooke - I Wanted You To Know - таба, видео

Регистрация Запомнить меня
Войти через:  Facebook Google Twitter Vk Yandex Mail.ru

Ramel Brooke - I Wanted You To Know - таба, видео

Печатать
Просмотров: 74
Уроки эстрадного вокала в Санкт-Петербурге
		   Subject: r/ramel_brooke/i_wanted_you_to_know.tab

                      I Wanted You To Know

                     Album: Make Tomorrow Up
                     Written by: Brooke Ramel
                       www.brookeramel.com

Melody tab by Alex Morando (arm77@yahoo.com)

[I just tabbed the melody. Some of the verses are a bit off,
changes and suggestions are very welcome.]

Verse 1:

    Am                            Gm
E------------|------------------------------|---5------3--------------------|
B---0--------|----0-----1----1----3---------|-------------------3-----------|
G------2-----|------------------------------|-------------------------------|
D------------|------------------------------|-------------------------------|
A------------|------------------------------|-------------------------------|
E------------|------------------------------|-------------------------------|
    C you ...
   Am
E------------|------------------------------|-------------------------------|
B--1--0------|---1----------3-----1---------|---0---------------------------|
G------------|------------------------------|----------2--------------------|
D------------|------------------------------|-------------------------------|
A------------|------------------------------|-------------------------------|
E------------|------------------------------|-------------------------------|
   C  you ...
    Am                            Gm
E------------|------------------------------|---5------3--------------------|
B---0--------|----0-----1---1-----3---------|-------------------3-----------|
G------2-----|------------------------------|-------------------------------|
D------------|------------------------------|-------------------------------|
A------------|------------------------------|-------------------------------|
E------------|------------------------------|-------------------------------|
    I like  ...
   Am
E------------|------------------------------|-------------------------------|
B--1--0------|---1----------0---------------|-------------------------------|
G------------|------------------------------|----2-----0--------------------|
D------------|------------------------------|-------------------------------|
A------------|------------------------------|-------------------------------|
E------------|------------------------------|-------------------------------|
   I wan  -     ted   ...


Chorus:

    G                               D             G                D
E------------|----3------------3----2-------|-----3------------3---2--------|
B---------0--|------------------------------|-------------------------------|
G---0--------|------------------------------|--0----------------------------|
D------------|------------------------------|-------------------------------|
A------------|------------------------------|-------------------------------|
E------------|------------------------------|-------------------------------|
    That I'm   ...
    G                                           D
E--------3---|---------------3--------------|---2---------0-----------------|
B----0-------|------------------------------|--------------------3----------|
G------------|------------------------------|-------------------------------|
D------------|------------------------------|-------------------------------|
A------------|------------------------------|-------------------------------|
E------------|------------------------------|-------------------------------|
     But so  ...
    G                         D                G                 D
E--------3---|----------3-----2-------------|--3------------3----2----------|
B---0--------|------------------------------|-------------------------------|
G------------|----------------------0-------|-------------------------------|
D------------|------------------------------|-------------------------------|
A------------|------------------------------|-------------------------------|
E------------|------------------------------|-------------------------------|
    I   fill ...

E---------3--|----3------------3------------|---2--------0------------------|
B----0-------|------------------------------|--------------------3----------|
G------------|------------------------------|-------------------------------|
D------------|------------------------------|-------------------------------|
A------------|------------------------------|-------------------------------|
E------------|------------------------------|-------------------------------|
     Will you  ...


Verse 2:

E------------|------------------------------|---5------3--------------------|
B---0--------|----0-----1-----1---3---------|-------------------3-----------|
G------2-----|------------------------------|-------------------------------|
D------------|------------------------------|-------------------------------|
A------------|------------------------------|-------------------------------|
E------------|------------------------------|-------------------------------|
    C you   ...

E------------|------------------------------|-------------------------------|
B--1--0------|---1-0-1------3-----1---------|---0---------------------------|
G------------|------------------------------|----------2--------------------|
D------------|------------------------------|-------------------------------|
A------------|------------------------------|-------------------------------|
E------------|------------------------------|-------------------------------|
    Is my  ...

E------------|------------------------------|---5------3--------------------|
B---0--------|----0-----1---1-----3---------|-------------------3-----------|
G------2-----|------------------------------|-------------------------------|
D------------|------------------------------|-------------------------------|
A------------|------------------------------|-------------------------------|
E------------|------------------------------|-------------------------------|
    I like  ...

E------------|------------------------------|-------------------------------|
B--1--0------|---1----------0---------------|-------------------------------|
G------------|------------------------------|----2-----0--------------------|
D------------|------------------------------|-------------------------------|
A------------|------------------------------|-------------------------------|
E------------|------------------------------|-------------------------------|
    I wan  -    ted   ...

Verse 3:

E---5----2---|--3---2---0-------------------|--3---2---0--------------------|
B------------|-------------3---0----0-------|--------------3---0----1--3----|
G------------|------------------------------|-------------------------------|
D------------|------------------------------|-------------------------------|
A------------|------------------------------|-------------------------------|
E------------|------------------------------|-------------------------------|
    Will you  ...

E---5----2---|--2---3---2----0--------------|-------------3---------2--0----|
B------------|--------------------3---0-----|-----0---1-------0-------------|
G------------|------------------------------|-------------------------------|
D------------|------------------------------|-------------------------------|
A------------|------------------------------|-------------------------------|
E------------|------------------------------|-------------------------------|
    Sometimes ...

E------------|------------------------------|-------------------------------|
B----0---0---|----0---1------1------0-------|-------------------------------|
G------------|------------------------------|---2------0--------------------|
D------------|------------------------------|-------------------------------|
A------------|------------------------------|-------------------------------|
E------------|------------------------------|-------------------------------|
     But now  ...


Chorus: [see above]

Verse 4:

E------------|------------------------------|------5----3-------------------|
B---0--------|----0-----1-----1-----3-------|--------------------3----------|
G------2-----|------------------------------|-------------------------------|
D------------|------------------------------|-------------------------------|
A------------|------------------------------|-------------------------------|
E------------|------------------------------|-------------------------------|
   C you  ...

E------------|------------------------------|-------------------------------|
B--1--0------|---1----------3-----1---------|---0---------------------------|
G------------|------------------------------|----------2--------------------|
D------------|------------------------------|-------------------------------|
A------------|------------------------------|-------------------------------|
E------------|------------------------------|-------------------------------|
   C you  ...

E------------|------------------------------|---5------3--------------------|
B---0--------|----0-----1--------1----3-----|-------------------------------|
G------2-----|------------------------------|-------------------------------|
D------------|------------------------------|-------------------------------|
A------------|------------------------------|-------------------------------|
E------------|------------------------------|-------------------------------|
    I want  ...

E------------|------------------------------|-------------------------------|
B--1--0------|---1----------0---------------|-------------------------------|
G------------|------------------------------|----2-----0--------------------|
D------------|------------------------------|-------------------------------|
A------------|------------------------------|-------------------------------|
E------------|------------------------------|-------------------------------|
   I wan    -    ted    ...                                         (2x)

     
Добавлено: 17.11.2013
Другие материалы по этой песне:
  • Аккорды и текст

Страница создана 17.11.2013
http://primanota.ru/ramel-brooke/i-wanted-you-to-know-chords.htm
Привет, Гость.
Предлагаем пройти революционный курс по гитаре.
Подарок от PrimaNota.Ru, забирай!