PrimaNota.ru - самый крупный в мире бесплатный архив песенных текстов, аккордов, табулатур и нот


Ralph Stanley - Katy Daley - аккорды и текст, видео

Регистрация Запомнить меня
Войти через:  Facebook Google Twitter Vk Yandex Mail.ru

Ralph Stanley - Katy Daley - аккорды и текст, видео

Печатать
Просмотров: 118
Уроки эстрадного вокала в Санкт-Петербурге
Katy Daley
Ralph Stanley
G 320003  C x32010  D xx0232  D7 xx0212

  G                   G                   G                   G             
E|-------------------|-------------------|-------------------|-------------------|
B|-------------------|-------------------|-------------------|-------------------|
G|-0---0---0---0-----|-0---0-------------|-------------------|-------------------|
D|-------------------|----------2---0----|-2---0-------------|-------------------|
   Come on down the    mountain Ka  ty     Da  ley
  G                   G                   D                   D             
E|-------------------|-------------------|-------------------|-------------------|
B|-------------------|-------------------|-------------------|-------------------|
G|-0---0---0---0-----|-2---2---2---2-----|-------------------|-------------------|
D|-------------------|-------------------|-4-----------------|-------------------|
   Come on down the   mountain Ka  ty      do
  D                   D                   D7                  D7
E|-------------------|-------------------|-------------------|-------------------|
B|-------------------|-------------------|-------------------|-------------------|
G|-------------------|-------------------|-------------------|-------------------|
D|-4---4---4---4-----|-4---4----3---0----|-3----4------------|---------------0---|
  Can't you hear us   calling   Ka  ty     Da   ley                          We 
  D7                  D7                  G                   GS
E|-------------------|-------------------|-------------------|-------------------||
B|-------------------|---------0---------|-------------------|-------------------||
G|-------------------|-0---0-------0-----|-0-----------------|-------------------||
D|-0---0---0---0-----|-------------------|-------------------|-------------------||
  want to drink your  good old mountain    dew


Chorus:
    G                                    G
Oh Come on down the mountain Katy Daley
                               D         D
Come on down the mountain Katy do
                               D7        D7
Can't you hear us calling Katy Daley
                                        G      G
We want to drink your good old mountain dew


Verse 1:
G                                         G
With her old man she came from Tipperary
                           D              D
In the pioneering days of '42
                                 D7       D7
Her old man was shot in Tombstone City
                                        G       G
For the making of his good old mountain dew


Chorus:
    G                                    G
Oh Come on down the mountain Katy Daley
                               D         D
Come on down the mountain Katy do
                               D7        D7
Can't you hear us calling Katy Daley
                                        G      G
We want to drink your good old mountain dew


Verse 2:
G                                       G
Wake up and pay attention Katy Daley
                                        D       D
For I'm the judge that's gonna sentence you
                                     D7         D7
All the boys in court have drunk your whiskey
                                  G      G
To tell the truth I like a little too


Chorus:
    G                                    G
Oh Come on down the mountain Katy Daley
                               D         D
Come on down the mountain Katy do
                               D7        D7
Can't you hear us calling Katy Daley
                                        G      G
We want to drink your good old mountain dew


Verse 3:
G                                           G
So to the jail they took poor Katy Daley
                                    D       D
And pretty soon the gates were open wide
                              D7            D7
Angels came for poor old Katy Daley
                              G             G
Took her far across the great divide


Chorus:
    G                                     G
Oh Come on down the mountain Katy Daley
                               D          D
Come on down the mountain Katy do
                               D7         D7
Can't you hear us calling Katy Daley
                                        G      G
We want to drink your good old mountain dew
Добавлено: 12.02.2016
Другие материалы по этой песне:
  • Аккорды и текст

Страница создана 12.02.2016
http://primanota.ru/ralph-stanley/katy-daley-chords.htm
Привет, Гость.
Предлагаем пройти революционный курс по гитаре.
Подарок от PrimaNota.Ru, забирай!