PrimaNota.ru - самый крупный в мире бесплатный архив песенных текстов, аккордов, табулатур и нот


Ralph Jay - See You Again - таба, видео

Регистрация Запомнить меня
Войти через:  Facebook Google Twitter Vk Yandex Mail.ru

Ralph Jay - See You Again - таба, видео

Печатать
Просмотров: 86
See You Again - Wiz Khalifa ft. Charlie Puth
Fingerstyle Guitar Arrangement by Ralph Jay Triumfo
Cover Video Link: https://youtu.be/Im_1DUdZTQY
Youtube Channel: http://www.youtube.com/user/ralphjay14
For more free tabs, visit my blogsite: http://ralphjaytriumfo.blogspot.com/
STANDARD TUNING
Capo on 3rd fret
Symbols and their meanings:
* = harmonics
~ = let it ring
s = slide
p = pull-off
h = hammer
B = bass beat
T = tap
T* = tap with harmonics
Intro: Em-G-C-G
 * * * * * * * * * * * * * * * *
e|----------------------------------------------------------|
b|---------------------0---------------------------0--------|
G|------2---0------0-2---2-0-2------2---0------0-2---2-0-2--|
D|----------------------------------------------------------|
A|------------------------------3~--------------------------|
E|--0~----------3~--------------------------3~--------------|
 * * * * * * * * * *
e|--------------------------------------------------|
b|---------------------0----------------------------|
G|------2---0------0-2---2-0-2------2---0-----------|
D|--------------------------------------------------|
A|------------------------------3~------------------|
E|--0~----------3~--------------------------3~------|
Chorus: Em-G-C-G
 It's been a long day...
 *
e|------------------0~---------------------------------------------------------------------|
b|----0-3-3s5~---3~-----------------0~----0-3-3s5-5s7-7s5-5s3-0----------------------------|
G|--0-----0~-----0~----0-1s2-1s2-p0-0~--0-----0---0---0---0---0-1s2-2-p0--1s2-1s2-p0--0----|
D|------------------------------------------------------------------------------------0----|
A|-----------------------3~-----------------------------------------------3~---------------|
E|--------0~-----3~-----------------3~--------0~--------------3~----------------------3~---|
 We've come a long way...
 *
e|----------------------0~----------------------------3-3h5-5s7-5-3--0-3-4s5-4s5-s3--3~----|
b|----0-3-3s5-5s7s5--3~-----------------0~----0-3-3s5--------------------------------------|
G|--0-----0~---------0~----0-1s2-1s2-p0-0~--0-----0-------------0--------------------0~----|
D|-----------------------------------------------------------------------------------------|
A|---------------------------3~------------------------------------------3~----------------|
E|--------0~---------3~-----------------3~--------0~------------3~-------------------3~----|

 When I see you again...
T
e|--0-3-4s5-4s5-s3--3~--|
b|----------------------|
G|------------------0~--|
D|----------------------|
A|------3~--------------|
E|------------------3~--|

Verse I (Rap part): Em-G-C-G
 B T B T B T B T B T B T B T B T*
e|---------------------------------------------------------------------------------------------|
b|--0-----0-----0-----0-3-0----------------0---------------------0--0-----------------------0--|
G|--0--2--0--2--0--2--0-----2--0-----0--2-----0--0---0-----0--2-----0--0-----0-----0--2--0--0--|
D|--------2-----------0-----------2--2--------0----2----2--2--------0-----2-----2--0-----0--0--|
A|-----------------------------3---------------------------------------------3-----------------|
E|--0-----------3---------------------------3--------0------------3-----------------------3----|
 B T B T B T B T B T B T B T B T*
e|---------------------------------------------------------------------------------------------|
b|--0-----0-----0-----0-3-0----------------0---------------------0--0-----------------------0--|
G|--0--2--0--2--0--2--0-----2--0-----0--2-----0--0---0-----0--2-----0--0-----0-----0--2--0--0--|
D|--------2-----------0-----------2--2--------0----2----2--2--------0-----2-----2--0-----0--0--|
A|-----------------------------3---------------------------------------------3-----------------|
E|--0-----------3---------------------------3--------0------------3-----------------------3----|
 B T B T B T B T B T B T B T B
e|------------------------------------------------------------------------------------|
b|--------0---------------0---------------------0--------------------0----------------|
G|--0-----0--0---0--0--0------0--0--0---0----------0--0--0---0-----------0--0--0--0---|
D|--2--2--2--0---0------------2--2---------2p0-----2--2---------2p0------2--2-----0---|
A|-------------------------3------------------------------------------3---------------|
E|--0--------3-----------------------3-----------0--------3-----------------------3---|

Chorus: Em-G-C-G
 *
e|------------------0~---------------------------------------------------------------------|
b|----0-3-3s5~---3~-----------------0~----0-3-3s5-5s7-7s5-5s3-0----------------------------|
G|--0-----0~-----0~----0-1s2-1s2-p0-0~--0-----0---0---0---0---0-1s2-2-p0--1s2-1s2-p0--0----|
D|------------------------------------------------------------------------------------0----|
A|-----------------------3~-----------------------------------------------3~---------------|
E|--------0~-----3~-----------------3~--------0~--------------3~----------------------3~---|
 *
e|----------------------0~----------------------------3-3h5-5s7-5-3--0-3-4s5-4s5-s3--3~----|
b|----0-3-3s5-5s7s5--3~-----------------0~----0-3-3s5--------------------------------------|
G|--0-----0~---------0~----0-1s2-1s2-p0-0~--0-----0-------------0--------------------0~----|
D|-----------------------------------------------------------------------------------------|
A|---------------------------3~------------------------------------------3~----------------|
E|--------0~---------3~-----------------3~--------0~------------3~-------------------3~----|

e|--0-3-4s5-4s5-s3--3~---------------------------------------------------------------------|
b|-----------------------------------------------------------------------------------------|
G|------------------0~---------------------------------------------------------------------|
D|-----------------------------------------------------------------------------------------|
A|------3~---------------------------------------------------------------------------------|
E|------------------3~---------------------------------------------------------------------|
Outro: Em-G-C-G

 T B T B T B T B T B T B T B T B
e|--3--2--0---------3--2--0--0--0------------3-5-7-5-7--7-7-7-10-7-----------3--|
b|--0-----0--0--3---3-----------3--3--0--3-5---------0------0------10-8---8--3--|
G|--0--------0--0---0-----0-----0-----0--0-----------0------0---------0-0-0--0--|
D|-----------2---------------------------0--------------------------------0-----|
A|------------------------3----------------------7------10----------------------|
E|--------0------3--------------------3-------------------------------8------3--|Verse II (Rap part): Em-G-C-G
 T*
e|--------------------------------------------------------------------------------------------|
b|--0-----0-----0-----0-3-0----------------0---------------------0-------------------------0--|
G|-----2-----2-----2--------2--0-----0--2------0-----0-----0--2-------0-----0-----0--2--0--0--|
D|--------------------------------2---------------2-----2----------------2-----2-----------0--|
A|-----------------------------3--------------------------------------------3-----------------|
E|--0-----------3---------------------------3--------0------------3----------------------3----|

B T B T B T B T B T B T B T B T*
e|---------------------------------------------------------------------------------------------|
b|--0-----0-----0-----0-3-0----------------0---------------------0--0-----------------------0--|
G|--0--2--0--2--0--2--0-----2--0-----0--2-----0--0---0-----0--2-----0--0-----0-----0--2--0--0--|
D|--------2-----------0-----------2--2--------0----2----2--2--------0-----2-----2--0-----0--0--|
A|-----------------------------3---------------------------------------------3-----------------|
E|--0-----------3---------------------------3--------0------------3-----------------------3----|

 B T B T B T B T B T B T B T B
e|------------------------------------------------------------------------------------|
b|--------0---------------0---------------------0--------------------0----------------|
G|--0-----0--0---0--0--0------0--0--0---0----------0--0--0---0-----------0--0--0--0---|
D|--2--2--2--0---0------------2--2---------2p0-----2--2---------2p0------2--2-----0---|
A|-------------------------3------------------------------------------3---------------|
E|--0--------3-----------------------3-----------0--------3-----------------------3---|

Bridge: C-G-D-- 2x Am-G-
 G-F#/G-Em-D-C-
 So let the light guide...
T T T T
e|------------------------------------------------------------------------5----3~--|
b|----0-3-3s5---3-----------3-3-3----3h5-5-5-5---3-3-0-3-3s5-3------------5-8--3~--|
G|--0-----------0--0--1s2---2-2-2----------------------------2--2-2-2-2s5---5--0~--|
D|------------------------0-----0----------------------0-----0-----------------0~--|
A|--------1s3----------------------3~---------------------------------0--------2~--|
E|--------------3~-----------------------------3-------------------------------3~--|

Will always lead you...
e|--7--------5--------3--------2--------0---------2---------3h5--5---|
b|-----0--------0--------0--------0----------------------------------|
G|--------0--------0--------0--------0-------0---------0-------------|
D|--5--------4--------2--------0-----------0---0-----0---0-----------|
A|--------------------------------------3~--------3~--------3~-------|
E|-------------------------------------------------------------------|

Chorus: Em-G-C-G
 *
e|------------------0~---------------------------------------------------------------------|
b|----0-3-3s5~---3~-----------------0~----0-3-3s5-5s7-7s5-5s3-0----------------------------|
G|--0-----0~-----0~----0-1s2-1s2-p0-0~--0-----0---0---0---0---0-1s2-2-p0--1s2-1s2-p0--0----|
D|------------------------------------------------------------------------------------0----|
A|-----------------------3~-----------------------------------------------3~---------------|
E|--------0~-----3~-----------------3~--------0~--------------3~----------------------3~---|
 *
e|----------------------0~----------------------------3-3h5-5s7-5-3--0-3-4s5-4s5-s3--3~----|
b|----0-3-3s5-5s7s5--3~-----------------0~----0-3-3s5--------------------------------------|
G|--0-----0~---------0~----0-1s2-1s2-p0-0~--0-----0-------------0--------------------0~----|
D|-----------------------------------------------------------------------------------------|
A|---------------------------3~------------------------------------------3~----------------|
E|--------0~---------3~-----------------3~--------0~------------3~-------------------3~----|

e|--0-3-4s5-4s5-s3--3~--|
b|----------------------|
G|------------------0~--|
D|----------------------|
A|------3~--------------|
E|------------------3~--|

Outro: Em-G-C-G
 T B T B T B T B T B T B T B T B
e|--3--2--0---------3--2--0--0--0------------3-5-7-5-7--7-7-7-10-7-----------3----|
b|--0-----0--0--3---3-----------3--3--0--3-5---------0------0------10-8---8--3----|
G|--0--------0--0---0-----0-----0-----0--0-----------0------0---------0-0-0--0----| (2X)
D|-----------2---------------------------0--------------------------------0-------|
A|------------------------3----------------------7------10------------------------|
E|--------0------3--------------------3-------------------------------8------3----|
Добавлено: 07.12.2015
Вам также может быть интересно:
Другие материалы по этой песне:
  • Аккорды и текст

Страница создана 07.12.2015
http://primanota.ru/ralph-jay/see-you-again-chords.htm
Привет, Гость.
Предлагаем пройти революционный курс по гитаре.
Подарок от PrimaNota.Ru, забирай!