PrimaNota.ru - самый крупный в мире бесплатный архив песенных текстов, аккордов, табулатур и нот


Ralph Jay - Rude - таба, видео

Регистрация Запомнить меня
Войти через:  Facebook Google Twitter Vk Yandex Mail.ru

Ralph Jay - Rude - таба, видео

Печатать
Просмотров: 187
Уроки эстрадного вокала в Санкт-Петербурге
Rude - Magic!
Fingerstyle Guitar Arrangement by Ralph Jay Triumfo
Video cover link: https://www.youtube.com/watch?v=7b4W6KLaM_8
Youtube Channel: https://www.youtube.com/user/ralphjay14
Blog: http://ralphjaytriumfo.blogspot.com
Standard Tuning
Capo on 1st Fret
1
st Verse
 T T T T
|---------------------------------------------------------|
|--------1--1--0--------1--1--0---------------------------|
|-----2--2--2-----2--2--2--2-----2-----2-----------0--2---|
|-----3-----------0-----------------0--0--2--2--3--2------|
|--------------------------------3--------0---------------|
|--1--------------3---------------------------------------|
 T T T T
|---------------------------------------------------------|
|--------1--1--0--------1--1--0---------------------------|
|-----2--2--2-----2--2--2--2-----2-----2-----------0--2---|
|-----3-----------0-----------------0--0--2--2--3--2------|
|--------------------------------3--------0---------------|
|--1--------------3---------------------------------------|
 T T T T
|--------1--1--0--------0--1--0--------------------0--1---|
|--------1--1-----3--3--3--3--3--1-----1--1--1--3--1------|
|-----2--2--------0--0--0--------0--0--0--0--------0------|
|-----3---------------------------------------------------|
|--------------------------------3--------0---------------|
|--1--------------3---------------------------------------|
 T T T T
|--------1--1--0--------0--1--0--------------------------|
|--------1--1-----3--3--3--3--3--1-----1--1-----1--------|
|-----2--2--------0--0--0--------0--0--0--0--0--0--------|
|---3----------------------------------------------------|
|--------------------------------3--------0--------------|
|-----------------3--------------------------------------|Refrain
 T T T T
|--------------------------------------------------------|
|---1-1-1-1-1-0-0-0-0------------------------------0-----|
|---2-2-2-2-2-2-2-2-2-2-2-2-0-0-2---0-0-0-2---0--2-------|
|-----------3---------0-0-0-------2-----2---2-2--2-------|
|-----------------------------3---2-----0----------------|
|---1---------------3------------------------------------|
 T T T T
|--------------------------------------------------------|
|---1-1-1-1-1-0-0-0-0---------------------1-3------------|
|---2-2-2-2-2-2-2-2-2-2-2-2-0-0-2---0-0-2-2--------------|
|-----------3---------0-0-0-------2---2------------------|
|-----------------------------3---2---0------------------|
|---1---------------3------------------------------------|
Chorus
 T T T T
|--------3--3--3--3--------0--------------3--3--3--3--------0---------|
|--------1--1--1--1--1--1--0--3--1--------1--1--1--1--1--1--1--3--1---|
|--------2-----------------0--------------0-----------0--0--0---------|
|--------------------------------------2------------------------------|
|-----3-----------------------------3-----------------0---------------|
|--1-----------------3------------------------------------------------|
 T T T T
|--------3--3--3--3--------0------------------------------------------|
|--------1--1--1--1--1--1--0--3--1-------1--1--1--1--0--1--1--0--1--1-|
|-----2--2-----------0-----0-------------0--0--0--0--0-----------0--0-|
|--3----------------------------------2--------------------------2----|
|-----------------------------------3----------------0----------------|
|--------------------3------------------------------------------------|
 T T T T
|------0------------------------0------------------------|
|---3-----1-----1-1-1-0-1-1--3-----1-----1-1-1-0-1-1-----|
|---2--------0--0-0-0-0-0-0--0--------0--0-0-0-0-0-0-----|
|---3--------3------------------------2------------------|
|----------------------------3-----------0---------------|
|---------------3----------------------------------------| T T T T

|------0--------------------------3-3-3-3----------------|
|---3-----1-----1-1-1-0-1-1-------1-1-1-1--1-1-1---------|
|---2--------0--0-0-0-0-0-0-------0--------0-0-0---------|
|---3--------3-----------------2---------------2---------|
|----------------------------3-------------0-------------|
|---------------3----------------------------------------|
 T T T T
|---0---------------------3-3-3-3----------------|
|---------3--1-----0------1-1-1-1--1-1-1---------|
|------2--2--0-----0------0--------0-0-0---------|
|---3-----3-----0--0----2--------------2---------|
|---------------------3------------0-------------|
|------------3-----------------------------------|
2
nd Verse
 T T T T
|---------------------------------------------------------|
|--------1--1--0--------1--1--0---------------------------|
|-----2--2--2-----2--2--2--2-----2-----2-----------0--2---|
|-----3-----------0-----------------0--0--2--2--3--2------|
|--------------------------------3--------0---------------|
|--1--------------3---------------------------------------|
 T T T T
|---------------------------------------------------------|
|--------1--1--0--------1--1--0---------------------------|
|-----2--2--2-----2--2--2--2-----2-----2-----------0--2---|
|-----3-----------0-----------------0--0--2--2--3--2------|
|--------------------------------3--------0---------------|
|--1--------------3---------------------------------------|
 T T T T
|-----------1--1--1--1--0----------0--0--0--0--0-----1--1--0-----|
|--------1--1--1--1--------3-------1--------------1-----1-----1--|
|--------2-----------------0-------0-----------0--------0--------|
|--------3-----------------0----2--------------------------------|
|-----3-----------------------3----------------0-----------------|
|--1-----------------3-------------------------------------------| T T T T

|--------1--1--1--1--0----------0--0--0--0--0-----1--1--0--------|
|--------1--1--1--------3-------1--------------1-----1-----------|
|--------2--------------0-------0-----------0--------0-----------|
|--------3--------------0----2-----------------------------------|
|-----3--------------------3----------------0--------------------|
|--1--------------3----------------------------------------------|
Refrain
 T T T T
|--------------------------------------------------------|
|---1-1-1-1-1-0-0-0-0------------------------------0-----|
|---2-2-2-2-2-2-2-2-2-2-2-2-0-0-2---0-0-0-2---0--2-------|
|-----------3---------0-0-0-------2-----2---2-2--2-------|
|-----------------------------3---2-----0----------------|
|---1---------------3------------------------------------|
 T T T T
|--------------------------------------------------------|
|---1-1-1-1-1-0-0-0-0---------------------1-3------------|
|---2-2-2-2-2-2-2-2-2-2-2-2-0-0-2---0-0-2-2--------------|
|-----------3---------0-0-0-------2---2------------------|
|-----------------------------3---2---0------------------|
|---1---------------3------------------------------------|
Chorus
 T T T T
|--------3--3--3--3--------0--------------3--3--3--3--------0---------|
|--------1--1--1--1--1--1--0--3--1--------1--1--1--1--1--1--1--3--1---|
|--------2-----------------0--------------0-----------0--0--0---------|
|--------------------------------------2------------------------------|
|-----3-----------------------------3-----------------0---------------|
|--1-----------------3------------------------------------------------|
 T T T T
|--------3--3--3--3--------0-------------------------------------------|
|--------1--1--1--1--1--1--0--3--1-------1--1--1--1--0--1--1--0--1--1--|
|-----2--2-----------0-----0-------------0--0--0--0--0-----------0--0--|
|--3----------------------------------2--------------------------2-----|
|-----------------------------------3----------------0-----------------|
|--------------------3-------------------------------------------------| T T T T

|------0------------------------0--------------------------------------|
|---3-----1-----1-1-1-0-1-1--3-----1-----1-1-1-0-1-1-------------------|
|---2--------0--0-0-0-0-0-0--0--------0--0-0-0-0-0-0-------------------|
|---3--------3------------------------2--------------------------------|
|----------------------------3-----------0-----------------------------|
|---------------3------------------------------------------------------|
 T T T T
|------0--------------------------3-3-3-3----------------|
|---3-----1-----1-1-1-0-1-1-------1-1-1-1--1-1-1---------|
|---2--------0--0-0-0-0-0-0-------0--------0-0-0---------|
|---3--------3-----------------2---------------2---------|
|----------------------------3-------------0-------------|
|---------------3----------------------------------------|
 T T T T
|---0---------------------3-3-3-3----------------|
|---------3--1-----0------1-1-1-1--1-1-1---------|
|------2--2--0-----0------0--------0-0-0---------|
|---3-----3-----0--0----2--------------2---------|
|---------------------3------------0-------------|
|------------3-----------------------------------|
 T T T T
|---0---------------------3-3-3-3----------------|
|---------3--1-----0------1-1-1-1--1-1-1---------|
|------2--2--0-----0------0--------0-0-0---------|
|---3-----3-----0--0----2--------------2---------|
|---------------------3------------0-------------|
|------------3-----------------------------------|
Adlib
 T T T T
|--------3-----------------------------------------3-1-0-------|
|--1-3-1-----1-1-3-1-----1-----------------0-1-0---------1-1---|
|----------2-2-------2---2-----0-2-----0h2-0-----0-------0-----|
|--------3---3---------0-0-0-2-----0h2-------------------2-----|
|--------------------------------3-----------------0-----------|
|--------------------3-----------------------------------------| T T T

|--------3--3--3--3--------0--------------------8--------------|
|--------1--1--1--1--1--1--0--3--1-------1------5--------------|
|-----2--2-----------0-----0-------------0------5--------------|
|--3----------------------------------2--2------7--------------|
|-----------------------------------3-----------0--------------|
|--------------------3-----------------------------------------|
Refrain
 T T T T
|--------------------------------------------------------|
|---1-1-1-1-1-0-0-0-0------------------------------0-----|
|---2-2-2-2-2-2-2-2-2-2-2-2-0-0-2---0-0-0-2---0--2-------|
|-----------3---------0-0-0-------2-----2---2-2--2-------|
|-----------------------------3---2-----0----------------|
|---1---------------3------------------------------------|
 T T T T
|--------------------------------------------------------|
|---1-1-1-1-1-0-0-0-0---------------------1-3------------|
|---2-2-2-2-2-2-2-2-2-2-2-2-0-0-2---0-0-2-2--------------|
|-----------3---------0-0-0-------2---2------------------|
|-----------------------------3---2---0------------------|
|---1---------------3------------------------------------|
Chorus
 T T T T
|--------3--3--3--3--------0--------------3--3--3--3--------0---------|
|--------1--1--1--1--1--1--0--3--1--------1--1--1--1--1--1--1--3--1---|
|--------2-----------------0--------------0-----------0--0--0---------|
|--------------------------------------2------------------------------|
|-----3-----------------------------3-----------------0---------------|
|--1-----------------3------------------------------------------------|
 T T T T
|--------3--3--3--3--------0-------------------------------------------|
|--------1--1--1--1--1--1--0--3--1-------1--1--1--1--0--1--1--0--1--1--|
|-----2--2-----------0-----0-------------0--0--0--0--0-----------0--0--|
|--3----------------------------------2--------------------------2-----|
|-----------------------------------3----------------0-----------------|
|--------------------3-------------------------------------------------| T T T T

|------0------------------------0--------------------------------------|
|---3-----1-----1-1-1-0-1-1--3-----1-----1-1-1-0-1-1-------------------|
|---2--------0--0-0-0-0-0-0--0--------0--0-0-0-0-0-0-------------------|
|---3--------3------------------------2--------------------------------|
|----------------------------3-----------0-----------------------------|
|---------------3------------------------------------------------------|
 T T T T
|------0--------------------------3-3-3-3----------------|
|---3-----1-----1-1-1-0-1-1-------1-1-1-1--1-1-1---------|
|---2--------0--0-0-0-0-0-0-------0--------0-0-0---------|
|---3--------3-----------------2---------------2---------|
|----------------------------3-------------0-------------|
|---------------3----------------------------------------|
 T T T T
|---0---------------------3-3-3-3----------------|
|---------3--1-----0------1-1-1-1--1-1-1---------|
|------2--2--0-----0------0--------0-0-0---------|
|---3-----3-----0--0----2--------------2---------|
|---------------------3------------0-------------|
|------------3-----------------------------------|
 T T T
|---0---------------------3-3-3-3----------------|
|---------3--1-----0------1-1-1-1--1-1-0h1~------|
|------2--2--0-----0------0--------0-0-----------|
|---3-----3-----0--0----2------------------------|
|---------------------3------------0-------------|
|------------3-----------------------------------|
Добавлено: 16.06.2015
Другие материалы по этой песне:
  • Аккорды и текст

Страница создана 16.06.2015
http://primanota.ru/ralph-jay/rude-chords.htm
Привет, Гость.
Предлагаем пройти революционный курс по гитаре.
Подарок от PrimaNota.Ru, забирай!