PrimaNota.ru - самый крупный в мире бесплатный архив песенных текстов, аккордов, табулатур и нот


Ralph Jay - Meteor Garden - таба, видео

Регистрация Запомнить меня
Войти через:  Facebook Google Twitter Vk Yandex Mail.ru

Ralph Jay - Meteor Garden - таба, видео

Печатать
Просмотров: 87
Qing Fei De Yi/Biyahe - Harlem Yu/Josh Santana
Fingerstyle Guitar Arrangement by Ralph Jay Triumfo
Video cover link: https://www.youtube.com/watch?v=eEWZ2fBYArY
Youtube Channel: https://www.youtube.com/user/ralphjay14
Blog: http://ralphjaytriumfo.blogspot.com/
(Standard Tuning)
-panoorin nyo na lang yung video ko para sa tap pattern.. kayang kaya nyo yan.. 


Intro
--3s5--3--3--3--3---5--0------------------------------------|
----------1--1--1---------3--1--1----1----0----1----3-------|
--------------------------------0----2----0----2----4-------|
------------------------------------------------------------|
--------3----3---------------0------------------------------|
------------------3----------------1----0----1----3---------|

-----------------------------|
----1--1--1----1--1--1-------|
----0--0--0----0--0--0-------|
-----------------------------|
--3----3-----3----3----------|
-----------------------------|

Verse
----------------------------------------------------------------------------|
----------------------------------------------------1-----------0--0--0-----|
--------0--------0-------------0--0--0--------------------0----0--0--0------|
--2--3-----3--2-----3--2--0----0--0--0--2--0--0--------2--------------------|
--------3--------3-------------------------------3--0-----------------------|
----------------------------3-----3-----------5--------------0----0---------|

------------------------------------------------------------|
------------------------------------------------------------|
--------------5-s4-s2--0--0---------------------0--0--------|
-----0--------------------2-----------2-----0---0--0--------|
--3-----3--3-----------------3--3--3-----3------------------|
-----1-----1----0------------1-----1-----------3------------|

----------------------------------------------------------------------0---------|
-----------------------------------------------------1--3----------0--0---------|
---------0--------0--2----------0--0--0-----------------------(12)-0--0---------|
-2-2--3-----3-2h3-------2--0----0--0--0--2--0--0-----------s4-(12)-2--2---------|
---------3--------3-------------------------------3--0-------------2------------|
-----------------------------3-----3-----------5-------------------0------------|

--------------------------------------------------------------0---------------|
--------1--1--1--3------------------1-----1---1--3---3--3--------3--1--0------|
--0--2--2--2--2-----s4-s2--0--0--2-----2----2--------0--0--0-------------2-0--|
-----3---------------------2--2-----------------------------------------------|
------------------------------------------------------------------------------|
-----1-----1--------0------0-----1-----1-----------3----3---------------------|
Chorus
-----------0-----------------3----------------3--0--0-----0-0h1p0--0--0--0--|
-----1--3--1--3--3--1--1--1------0--0--0--3s5----1--1--3--1--------0--0--0--|
--0-----------0------------------0--0--0---------------2--------------------|
----------------------------------------------------------------------------|
-----------3-------------------------------------0-----0--------------------|
-------------------------------0----0----------------------------0----0-----|

-------------------------------------------------------------------|
--3s5--3--3--1-----1--3-----0--0--0--------1-----1---1--3---3--3---|
----------2--2--2--------0--0--0--0--0--2--2--2----2--------0--0---|
----------------------------------------3--------------------------|
-------------------------------------------------------------------|
----------1-----1---------0----0--------1-----1----------3-----3---|

-----------0-----------------3----------------3--0--0-----0-0h1p0--0--0--0--|
-----1--3--1--3--3--1--1--1------0--0--0--3s5----1--1--3--1--------0--0--0--|
--0-----------0------------------0--0--0---------------2--------------------|
----------------------------------------------------------------------------|
-----------3-------------------------------------0-----0--------------------|
-------------------------------0----0----------------------------0----0-----|

----------------------------------------------------0--------|
--3s5--3--3--1-----1--3-----0--0--------------1--------3--1--|
----------2--2--2--------0--0--0--0--0--0--2--2--2-----------|
-------------------------------------------3-----------------|
-------------------------------------------------------------|
----------1-----1---------0----0-----------1-----1--3--------|

Outro
-------------------------3---|
----1--1--1--1-----1--s5-----|
----0--0--0--0--0h2----------|
-----------------------------|
--3----3-----3---------------|
-----------------------------|

Verse II
--0--1--3--1--0--3--1--0-------------------------5s8--------------------------------|
--------------------------3---3--3--3-s5--3-3s1-------5-5s8----0--(12)--0--0--------|
------------------------------0--0--0--------------------------0--(12)--0--0--------|
-------------------------------------------------0----------------------------------|
--------3--------3--------------------------0---------------------------------------|
----------------------------3----3---------------------------0----------------------|

-----------------8--7--5--3-----------0--------------------|
--1--3--1--1--1--------------1--1--1-----1--3---3--3-------|
--------2--2--2--5--4--2--0--2--2--2------------0--0-------|
-----------------------------------------------------------|
-----------------------------------------------------------|
-----1-----1--------0-----0--1----------------3----3-------|

-0-0-1--3--1-0h1-3--5--0-------------------------5s8-s10--7----------------------|
--------------------------3---3--3--3-s5--3-3s1--------------8s10-s8-------------|
------------------------------0--0--0--------------------------------------------|
-------------------------------------------------0-------------------------------|
--------3--------3--------------------------0------------------------------------|
----------------------------3----3-------------------------0---------------------|

------8---8--8---10--7----------------------8-------8-----8---10--10---12--10---8-7s5s3-|
--10--10--10-10---------8s10-s8--8-8-8--10--10--10--10-10-10----------------------------|
--10------------------------------------10------10-----10---------0--0------------------|
----------------------------------------------------------------------------------------|
--8-------8-----------------------------8-------8-------------10--10---------10---------|
---------------------0--------0---------------------------------------------------------|

Chorus II
-----------0-----------------3----------------3--0--0-----0-0h1p0--0--0--0--|
-----1--3--1--3--3--1--1--1------0--0--0--3s5----1--1--3--1--------0--0--0--|
--0-----------0------------------0--0--0---------------2--------------------|
----------------------------------------------------------------------------|
-----------3-------------------------------------0-----0--------------------|
-------------------------------0----0----------------------------0----0-----|

-------------------------------------------------------------------|
--3s5--3--3--1-----1--3-----0--0--0--------1-----1---1--3---3--3---|
----------2--2--2--------0--0--0--0--0--2--2--2----2--------0--0---|
----------------------------------------3--------------------------|
-------------------------------------------------------------------|
----------1-----1---------0----0--------1-----1----------3-----3---|


-----------0-----------------s5--3------------3--0--0-----0-0h1p0--0--0--0--|
-----1--3--1--3--3--1--1--1---------0--0--3s5----1--1--3--1--------0--0--0--|
--0-----------0---------------------0--0---------------2--------------------|
----------------------------------------------------------------------------|
-----------3-------------------------------------0-----0--------------------|
-------------------------------0----0----------------------------0----0-----|

----------------------------------------------------0--------|
--3s5--3--3--1-----1--3-----0--0--------------1--------3--1--|
----------2--2--2--------0--0--0--0--0--0--2--2--2-----------|
-------------------------------------------3-----------------|
-------------------------------------------------------------|
----------1-----1---------0----0-----------1-----1--3--------|

Outro
-----------------------------|
----1--1--1----3--3--3-------|
----0--0--0----0--0--0-------|
-----------------------------|
--3----3---------------------|
-------------3----3----------|

---------------0--3--0-----------0------------------------|
--1-------1h3--------------0--1--1-----1----0-----1-----3-|
--0--0h2-------------------0--2--------2----0-----2-----4-|
----------------------------------------------------------|
--3---------------------------0---------------------------|
------------------------3-----------1----0-----1-----3----|

---------------0--3--0-----------0------------------------|
--1-------1h3--------------0--1--1-----1----0-----1-----3-|
--0--0h2-------------------0--2--------2----0-----2-----4-|
----------------------------------------------------------|
--3---------------------------0---------------------------|
------------------------3-----------1----0-----1-----3----|
Bridge
-----------0--1--0------------------------------------------------------|
--1--1--3-----------3--3--1--1--1--1--1--1--1--1-------1--1--1----------|
--2--2-----------------------2--2--2--2--2--2--2--0----0--0--0----------|
------------------------------------------------------------------------|
--0--0-----------------------------------------------3----3-----3--2----|
------------0----------------1--------3---------------------------------|

-----------s5--3-----------0------------------------------------0--------|
--1--1--3---------0--1--3-----3--3--1--1-----1--3---3--3-----3------3--2-|
--2--2------------------------------------2---------0--0--0---------2--2-|
-------------------------------------------------------------------------|
--0--0------------------------------------------------------------0------|
-------------0----0--------1--------1-------------3----3-----------------|

Chorus III
--------0--2--0--0-----------5---5--5--2--5--2--2--2--2--3--2---2--2--2--|
-----3-----3--3--3--3--3--3------2--2--------3--3--3--3---------2--2--2--|
--2-----------------2--2--2----------------------------------------------|
-----------0-------------------------------------------------------------|
---------------------------------------------2---------------------------|
------------------------------2-----2-------------------------2----2-----|

--2--0--0--------------0--------------------------------------0------------|
-----------3--3--0--3--------3--3--3-----------0--3--0--3--3-----------3-2-|
-----------------0--0-----2--2--2--2--2--2--2--0--0--0--0--0---------2-2-2-|
---------------------------0----0----------------------------------2-------|
-----------------------------------------------------------------0---------|
--------3--------------------------------------3---------------------------|

--------0--2--0--0-----------5---5--5--2--5--2--2--2--2--3--2---2--2--2--|
-----3-----3--3--3--3--3--3------2--2--------3--3--3--3---------2--2--2--|
--2-----------------2--2--2----------------------------------------------|
-----------0-------------------------------------------------------------|
---------------------------------------------2---------------------------|
------------------------------2-----2-------------------------2----2-----|

--2--0--0--------------0-----------------------------2--0--------------------------2--0---|
-----------3--3--0--3--------3--3--3-----------0--3--2-----3--3--3-----------0--3--2----3-|
-----------------0--0-----2--2--2--2--2--2--2--0--0--------2--2--2--2--2--2--0--0-------2-|
---------------------------0----0---------------------------0----0------------------------|
-----------------------------------------------------0-----------------------------0------|
--------3--------------------------------------3------------------------------------------|

Outro
--------------------------2--5--2------------3--3--2--2--3--3--5--5--10s--|
----3--3--3--3-------3h5------------2--3--3--3--3--3--3--3--3--5--5--10s--|
----2--2--2--2--2h4-----------------2--4--4-------------------------------|
--0----0-----0------------------------------------------------------------|
----------------------------------0----2----------------------------------|
---------------------------------------------3-----2-----3-----5----------|
Добавлено: 24.10.2015
Другие материалы по этой песне:
  • Аккорды и текст

Страница создана 24.10.2015
http://primanota.ru/ralph-jay/meteor-garden-chords.htm
Привет, Гость.
Предлагаем пройти революционный курс по гитаре.
Подарок от PrimaNota.Ru, забирай!