PrimaNota.ru - самый крупный в мире бесплатный архив песенных текстов, аккордов, табулатур и нот


Ralph Jay - Let It Go - таба, видео

Регистрация Запомнить меня
Войти через:  Facebook Google Twitter Vk Yandex Mail.ru

Ralph Jay - Let It Go - таба, видео

Печатать
Просмотров: 119
Let It Go - Demi Lovato
Fingerstyle arrangement by Ralph Jay Triumfo
Video link: http://youtu.be/vjsMgPmyt0w
Youtube channel: http://www.youtube.com/user/ralphjay14
For more tabs, visit my blog: http://ralphjaytriumfo.blogspot.com/
Standard Tuning
Chorus:
Let it go...
--3-2-3-----7-5---5-3-0-0-0-0-0-2-3---3---
--3-------3------7----0-------0------3----
---------0-0----7-------------------0-----
--------0------0--------------------------
-----------------------------------3------
-------3--------------0-------------------
G D Em C
--0-2-3-----7-5---5-3-5-7-8-7-5-3---3---3-
----------3------7------0----------3-3--3-
---------0-0----7-----------------0---0-0-
--------0------0--------------------------
---------------------------------3------3-
-------3----------------0-----------------
G D Em C
Verse:
-------------------------------------------
--0-0-0-0-0-------0-------0-------0--------
--0---0-----2-0-0-0-0h2-2-2-0-2---2--------
------2-------------0-----0-------2--------
----------3-------3-------------0----------
--0----------------------------------------
Em C D Am
------------0------------------------------
--0-0-0-0-3----3--3-------0----------0-----
----0---0---------0--2-2--2--2-0-2---2-----
--------2---------0--0----0----------2-----
-------------3---------------------0-------
----0--------------------------------------
Em C D Am
-----------0-------------------------------
---0-0-0-3---3-3-0-3-3-1-1-0-1-0--0--------
---0---0-------0---2-----2--------2--------
-------0-------0---0-----0--------2--------
------------3-----------------0------------
--0----------------------------------------
Em C D Am
-------------------------------------------
---0-0---------0-1-0------0----0-----------
-------2-0-2-----0------2-2----2-----------
-------0-------------0----0----2-----------
-------------3---------------0-------------
--0----------------------------------------
Em C D Am
Prechorus:
----------------------0-0--0---0-0-0-2-3-2-2--
--------3-3-3-------3--------3-3-------3------
----2-2-2-------2-2-2----------0-------0------
--0-----0-----0-----0-------------------------
--------------------------3--------3----------
----------------------------------------------
D C
----------------------0-0---------0-0-2-3~----
--------3-3-3-------3-------3---3-------3~----
----2-2-2-------2-2-2-------0---0-------------
--0-----0-----0-----0-------------------------
--------------------------3---3---------3~----
----------------------------------------------
D C
Chorus:
--0-2-3---------7-5---5-5-3--0-0-0-0-2-3-----3-3-
----------3-3-3------7--7----0-----0--------3--3-
---------0--0-------7---7----------0-------0---0-
--------0---0------0-----------------------------
-----------------------------------------3-------
-------3---------------------0-------------------
G D Em C
--0-2-3---------7-5---5-5-3-5-7-8-7---5-3----3--3--
----------3-3-3------7--7-----0-----0-------3---3--
---------0--0-------7---7-----------0------0----0--
--------0---0------0-------------------------------
-----------------------------------------3---------
-------3----------------------0--------------------
G D Em C
--10-------------------10----------------------------
-----(12)-10----10-10-----(12)-8----8-8--------------
----------------0---0--------------0--0--------------
---------------0----0-------------0---0--------------
--10-------------------------------------------------
-------------10---------0--------8-------------------
G D Em C
--0-2-3---------7-5---5-5--------------------------
----------3-3-3------7--7---1-1-0-1-0---1-0--------
---------0--0-------7---7---0---------0-----0------
--------0---0------0-------------------------------
----------------------------3----------------------
-------3-------------------------------------------
G D C
Verse:
-------------------------------------------
---0-0-0-0-0----0--------0-0-0---0---------
---0---0-----0--0--0h2-2-2-------2---------
-------2--------2--0-----0-------2---------
-----------3-------------------0-----------
--0----------------------------------------
Em C D Am
------------0--------3-3-2---0-0-----------
--0-0-0-0-3----3--3--------3-------0-------
----0---0---------0--------2-------2-------
--------2---------0--0-----0-------2-------
-------------3-------------------0---------
----0--------------------------------------
Em C D Am
----0-0---0-2-3-0----------------0---------
----0---0---------0--0-3-0-3-3-0-----0-----
--------0---------0----------2-------2-----
--------2---------2----0-----0-------2-----
-------------3---------------------0-------
--0----------------------------------------
Em C D Am
----0-0---0-2-3-2---0-2-3-0-3---0-5---5----
----0---0---------0-----------3-------3----
--------0---------0-----------2-------2----
--------2---------2-----0-----0-----0------
-------------3-----------------------------
--0----------------------------------------
Em C D Am
Chorus:

--0-2-3---------7-5---5-5-3--0-0-0-0-2-3-----3-3-
----------3-3-3------7--7----0-----0--------3--3-
---------0--0-------7---7----------0-------0---0-
--------0---0------0-----------------------------
-----------------------------------------3-------
-------3---------------------0-------------------

G D Em C
--0-2-3---------7-5---5-5-3-5-7-8-7---5-3----3--3--
----------3-3-3------7--7-----0-----0-------3---3--
---------0--0-------7---7-----------0------0----0--
--------0---0------0-------------------------------
-----------------------------------------3---------
-------3----------------------0--------------------

G D Em C
--10-------------------10--------------------------
-----(12)-10----10-10-----(12)-8----8-8------------
----------------0---0--------------0--0------------
---------------0----0-------------0---0------------
--10-----------------------------------------------
-------------10---------0--------8-----------------

G D Em C
--0-2-3---------7-5---5-5---8-8-7-8-7---8-7--------
----------3-3-3------7--7-------------8-----8-8----
---------0--0-------7---7---0-----------------0----
--------0---0------0--------------------------0----
---------------------------------------------------
-------3--------------------8-----------------8----
G D C
Outro:
--3--3--5--3--3--5--0--3--5--8---7---------
--3--------3--------0---------------10--8--
--0--------2--------0---------------------- (3X)
--0--------0--------2----------------------
--2-----------------2----------------------
--3-----------------0----------8-----------
G D Em
Chorus:
--3-2-3-----7-5---5-3-0-0-0-0-2-3---3---3--
--3-------3------7----0-----0------3-3--3--
---------0-0----7-----------------0---0-0--
--------0------0---------------------------
---------------------------------3------3--
-------3--------------0--------------------

G D Em C
--0-2-3---------7-5---5-5-3-5-7-8-10---5-3----3--3--
----------3-3-3------7--7-----0------0-------3---3--
---------0--0-------7---7------------0------0----0--
--------0---0------0--------------------------------
------------------------------------------3---------
-------3----------------------0---------------------
G D Em C
--10-------------------10-(12)---------------------
-----(12)-10----10-10-----(12)-8----8-8------------
----------------0---0--------------0--0------------
---------------0----0-------------0---0------------
--10-----------------------------------------------
-------------10---------0--------8-----------------

G D Em C
--0-2-3---------7-5---5-5---8-8-7-8-7---8-7--------
----------3-3-3------7--7-------------8-----8-8----
---------0--0-------7---7---0-----------------0----
--------0---0------0--------------------------0----
---------------------------------------------------
-------3--------------------8-----------------8----

G D C
Outro:
--3--3--5--2--3--5--0--3--5--8---7---------
--3--------3--------0---------------10--8--
--0--------2--------0---------------------- (3X)
--0--------0--------2----------------------
--2-----------------2----------------------
--3-----------------0----------8-----------

G D Em C
--3-2-3-----7-5---5-5--3-------3---3-2-3-3-
--3-------3------7--7--3-------3---3-3-3-3-
---------0-0----7---7--0-------0---------0-
--------0------0----0--2-------2---------0-
-----------------------2-------3-----------
-------3---------------0-----------------3-
G D Em C G
Добавлено: 16.06.2015
Другие материалы по этой песне:
  • Аккорды и текст

Страница создана 16.06.2015
http://primanota.ru/ralph-jay/let-it-go-chords.htm
Привет, Гость.
Предлагаем пройти революционный курс по гитаре.
Подарок от PrimaNota.Ru, забирай!