PrimaNota.ru - самый крупный в мире бесплатный архив песенных текстов, аккордов, табулатур и нот


Ralph Jay - Ikaw - таба, видео

Регистрация Запомнить меня
Войти через:  Facebook Google Twitter Vk Yandex Mail.ru

Ralph Jay - Ikaw - таба, видео

Печатать
Просмотров: 102
Ikaw - Yeng Constantino
Fingerstyle Guitar Arrangement by Ralph Jay Triumfo
Cover Video Link: http://youtu.be/vbmjXeOI4TU
Youtube Channel: http://www.youtube.com/user/ralphjay14
For more free tabs, visit my blogsite: http://ralphjaytriumfo.blogspot.com/
Drop-D Tuning (step down the 6th string by 2 fret)
Capo on 3rd fret
PRE-INTRO :( D--F#--Bm-A-G-------------------------------------------|
E|--2--3-3-2-0---0-------2-2-0---------------------------------------|
B|--3----------3---------------3-2-3-----3---3-----3---3---0-3-0-3---|
G|--2------------------2---------------4-4-4-----4-4-4-----0---------|
D|--0----------------2-----------------------------------------------|
A|--0--------------------------------2---------0---------------------|
D|--0--------------4-------------------------------------5-----------|

INTRO :( D--F#--Bm--G---------------------------------------|
E|----------------------------------------------------------|
B|--3--3--3--3--2------2--2--2--3--3--3--3--0--0--0--0------|
G|--2--2--2--2----2----2--2--2--4--4--4--4--0--0--0--0------|
D|------------------4---------------------------------------|
A|------------------------------2----2--2-------------------|
D|--0----0--0---4--------4--4---------------5----5--5-------|

VERSE :( D--Em/G--F#m--G) X2
 Sa pagpatak ng bawat oras...
E|------------------------0--------------------------------|
B|--------------------------3------------------3-2---------|
G|------------------------------0------------0-------------|
D|--2-0-2-s4------2-0-2-4-----4----------2-4-------2-4-----|
A|---------------------------------------------------------|
D|---------0----0-------0----0----2----2-----2----2--------|

E|---------------------------------------------|
B|---------------2-0---------------------------|
G|--------------------------------0---2--------|
D|---------0-2-4-------0--2---4----------------|
A|---------------------------------------------|
D|--4----4-----4----4-----5---5---5---5--------|

E|------------------------0--------------------------------|
B|--------------------------3------------------3-2---------|
G|------------------------------0------------0-------------|
D|----2--2s4------2-0-2-4-----4----------2-4-------2-4-----|
A|---------------------------------------------------------|
D|---------0----0-------0----0----2----2-----2----2--------|

E|-----------------------------------------------------|
B|---------------2-0----------------------------3------|
G|--------------------------------0---2-------0---0----|
D|---------0-2-4-------0--2---4-------------0-------0--|
A|-----------------------------------------------------|
D|--4----4-----4----4-----5---5---5---5---5------------|

CHORUS :( D--F#--Bm-A-G--) X2
 Ikaw ang pag ibig...
E|--0h2----2-2-3-3-2-0---0---------2-2-0----------|
B|-------3-3-3-3-3-3-3-3-----------------3-2-3----|
G|-------2---------------------2------------------|
D|---------------------------2---2----------------|
A|------------------------------------------------|
D|-----0-------0------0----4-------4------4-------|

E|----------------------------0-2--0---------|
B|------3---3-----3---3---0-3--------3-------|
G|----4-4-4-----4-4-4-----0------------------|
D|-------------------------------------------|
A|--2---------0------------------------------|
D|----------------------5--------5-----------|

E|--2s5s2----2-2-3-3-2-0---0---------2-2-0-----------|
B|---------3-3-3-3-3-3-3-3-----------------3-2-3-----|
G|---------2---------------------2-------------------|
D|-----------------------------2---2-----------------|
A|---------------------------------------------------|
D|-------0-------0------0---4-------4------4---------|

E|----------------------------0--0-2-0-------|
B|------3---3-----3---3---0-3----------3-2-3-|
G|----4---4-----4---4-----0------------------|
D|-------------------------------------------|
A|--2---------0------------------------------|
D|----------------------5----------5---------|

INTRO :( D----)
E|-------------------------------------------------------|
B|------3---2---2---0---0---0---0----3-3--2-2--0-0-0-0---|
G|----2-2-2-2-2-2-2-2-2-2-2-2-2-2-3--2-2--2-2--2-2-2-2---|
D|-----------------------------------0----0----0---------|
A|-----------------------------------0----0----0---------|
D|--0-------0-------0-------0--------0----0----0---------|

VERSE :( D--Em/G--F#m--G) X2
 Humihinto sa bawat oras...
E|------------------------0--------------------------------|
B|--------------------------3------------------3-2---------|
G|------------------------------0------------0-------------|
D|--2-0-2-s4------2-0-2-4-----4----------2-4-------2-4-----|
A|---------------------------------------------------------|
D|---------0----0-------0----0----2----2-----2----2--------|

E|---------------------------------------------|
B|---------------2-0---------------------------|
G|--------------------------------0---2--------|
D|---------0-2-4-------0--2---4----------------|
A|---------------------------------------------|
D|--4----4-----4----4-----5---5---5---5--------|

E|------------------------0--------------------------------|
B|--------------------------3------------------3-2---------|
G|------------------------------0------------0-------------|
D|----2--2s4------2-0-2-4-----4----------2-4-------2-4-----|
A|---------------------------------------------------------|
D|---------0----0-------0----0----2----2-----2----2--------|

E|------------------------------------------------|
B|---------------2-0----------------------3-------|
G|--------------------------------0---2---0-------|
D|---------0-2-4-------0--2---4-----------0-------|
A|----------------------------------------x-------|
D|--4----4-----4----4-----5---5---5---5---5-------|

CHORUS :( D--F#--Bm-A-G--) X2
 Ikaw ang pag ibig...
E|--0h2-----2-2-3-3-2-0-----0---------2-2-0-----------|
B|-------3--3-3-3-3-3-3---3-------2---------3---2-3---|
G|-------2-------------0----------2----------2--------|
D|-------0-------------0--------2-2----------2--------|
A|-------0-------------0------------------------------|
D|-----0--------0-------------4-------4---------------|

E|-------------------------------0-2--0---------|
B|------3----3-----3----3---0-3---------3-3-----|
G|----4-4--4-----4-4--4-------0-----------0-----|
D|------4----------4----------0-----------0-----|
A|--2----------0--------------------------------|
D|------------------------5---------5-----------|

E|--2s5s2-----2-2-3-3-2-0-----0---------2-2-0-----------|
B|---------3--3-3-3-3-3-3---3-------2---------3---2-3---|
G|---------2-------------0----------2----------2--------|
D|---------0-------------0--------2-2----------2--------|
A|---------0-------------0------------------------------|
D|-------0--------0-------------4-------4---------------|

E|------------------------------0--0-2-0----------|
B|------3----3-----3----3--0-3-----------3--2-3---|
G|----4-4--4-----4-4--4------0-----------0--------|
D|------4----------4---------0-----------0--------|
A|--2----------0----------------------------------|
D|------------------------5----------5------------|

(D--)
E|---------------|
B|----3-----3----|
G|----2--2--2----|
D|----0----------|
A|---------------|
D|--0------------|

BRIDGE : ( F#m--Bm--F#m--Bm--Em--A--)
 At hindi pa...
E|-----0--2--0---------------3--2--------5--2--2------------------3--2--------|
B|--3-----------2------3--5--------3--------3-----5--5------3--5--------3-----|
G|--------------2---------2--------4--------4--------2---------2--------4-----|
D|--------------2---------2--------4-----------------2---------2--------4-----|
A|--------------X--------------2---2-----------------X--------------2---2-----|
D|----------4---4--------------------------------4---4------------------------|

E|-----0--2--0-----------2---2----0--0------------|
B|--3----------0---3--0--0-----------2------------|
G|-------------0---------0-----------2------------|
D|-------------0---------0-----------2------------|
A|------------------------------0----0------------|
D|----------2--------2----------------------------|

CHORUS :( F--Am--Dm-C-Bb--) 4X
 Ikaw ang pag ibig...
E|--3s5-------5-5-6-6-5-3--------3---------5-5-3-1----0-1---|
B|--------X---------------X---6--------1-----------1--------|
G|--3s5---5---5-5-5-5-5---5------------0-----------0--------|
D|--------3---------------3----------2-2-----------2--------|
A|--------3---------------3--------0---0---0----------------|
D|------3---------3-----------------------------------------|

E|------1----1-----1----1-----1--3-5-3-1----------|
B|----3-3--3-----3-3--3-----3-3----------2--------|
G|----2-2--2-----2-2--2-----3-3----------2--------|
D|--0-------------------------X----------X--------|
A|-------------3----------1---------1-------------|
D|------------------------------------------------|

E|-s8-5-------5-5-6-6-5-3--------3---------5-5-3-1----0-1---|
B|--------X---------------X---6--------1-----------1--------|
G|----5---5---5-5-5-5-5---5------------0-----------0--------|
D|--------3---------------3----------2-2-----------2--------|
A|--------3---------------3--------0---0---0----------------|
D|------3---------3-----------------------------------------|

E|------1----1-----1----1-----1--3-5-3-1----------|
B|----3-3--3-----3-3--3-----3-3----------2--------|
G|----2-2--2-----2-2--2-----3-3----------2--------|
D|--0-------------------------X----------X--------|
A|-------------3----------1---------1-------------|
D|------------------------------------------------|
 Ikaw ang pag ibig...
E|--3s5-------5-5-6-6-5-3--------3---------5-5-3-1----0-1---|
B|--------X---------------X---6--------1-----------1--------|
G|--3s5---5---5-5-5-5-5---5------------0-----------0--------|
D|--------3---------------3----------2-2-----------2--------|
A|--------3---------------3--------0---0---0----------------|
D|------3---------3-----------------------------------------|

E|------1----1-----1----1-----1--3-5-3-1----------|
B|----3-3--3-----3-3--3-----3-3----------2--------|
G|----2-2--2-----2-2--2-----3-3----------2--------|
D|--0-------------------------X----------X--------|
A|-------------3----------1---------1-------------|
D|------------------------------------------------|

E|-s8-5-------5-5-6-6-5-3--------3---------5-5-3-1----0-1---|
B|--------X---------------X---6--------1-----------1--------|
G|----5---5---5-5-5-5-5---5------------0-----------0--------|
D|--------3---------------3----------2-2-----------2--------|
A|--------3---------------3--------0---0---0----------------|
D|------3---------3-----------------------------------------|

E|------1----1-----1----1-----1--3-3-5-3-1---0-1--|
B|----3-3--3-----3-3--3-----3-3----------2--------|
G|----2-2--2-----2-2--2-----3-3----------2--------|
D|--0-------------------------X----------X--------|
A|-------------3----------1----------1------------|
D|------------------------------------------------|

OUTRO :( F--Am--Dm--Bb--------------------------------------------------------|F)
E|------1--1--1---0-----0---0---0---1---1---1---1---1---1---5-3-1-0-1---------|
B|------1--1--1-----1-------------1---3---3---3---3---3---3---------------1~--|
G|----2---------------0---0---0-------2---------------3---3--3-3--------2~----|
D|--3-----3--3--3-------------------0---------------------------------3~------|
A|----------------0---------------------------------1-------1-----------------|
D|----------------------------------------------------------------------------|
Добавлено: 24.10.2015
Другие материалы по этой песне:
  • Аккорды и текст

Страница создана 24.10.2015
http://primanota.ru/ralph-jay/ikaw-chords.htm
Привет, Гость.
Предлагаем пройти революционный курс по гитаре.
Подарок от PrimaNota.Ru, забирай!