PrimaNota.ru - самый крупный в мире бесплатный архив песенных текстов, аккордов, табулатур и нот


Ralph Jay - Ikaw At Ako - таба, видео

Регистрация Запомнить меня
Войти через:  Facebook Google Twitter Vk Yandex Mail.ru

Ralph Jay - Ikaw At Ako - таба, видео

Печатать
Просмотров: 123
Ikaw at Ako by TJ Monterde
Fingerstyle Guitar Arrangement by Ralph Jay Triumfo
Video cover link: https://www.youtube.com/watch?v=613Ixnd-ahc
Youtube Channel: https://www.youtube.com/user/ralphjay14
Blog: http://ralphjaytriumfo.blogspot.com/
Tuning: (Half step down)
*Kung naka standard tuning ka, ibaba mo lang ng isang fret ang lahat ng string.
eb|-------------------------
bb|-------------------------
Gb|-------------------------
Db|-------------------------
Ab|-------------------------
Eb|-------------------------
Intro: G-D/F#-Em-C
E|----------------7---10---7-----------------7-----------
A|-------8---10----------------10---8---10---------------
D|---7---------------------------------------------------
G|-------------------------------------------------------
D|-----------------------10----------------9-------------
E|-------------------------------------------------------
 
E|----------------7---10---7-----------------------------
A|-------8---10----------------10--s12---8---------------
D|---7--------------------------------------7h9p7--------
G|-------------------------------------------------7h9p7-
D|-------------------------------------------------------
E|-----------------------0-----------------8-------------
Verse I: G-D/F#-Em-C (2X)
E|----------------------------------------------------------------
A|---3---3---0-----------3--p0-------3s5s3-----------0------------
D|---------------0---------------0-----------0--0h2-----0h2-------
G|-------------------0---------------------------------------0----
D|--------------------------------------------------------------3-
E|-------3--------------2----------------0------------------------

E|----------------------------------------------------------------
A|---3---0-----------3---0-----------3s5s3-----------0------------
D|-----------0----------------0--------------0--0h2-----0h2--0----
G|---------------0------------------------------------------------
D|--------------------------------------------------------------3-
E|---3--------------2--------------------0------------------------
Chorus: G-D/F#-Em-C (2X)
E|--------------------------------------------------
A|----------------0--s3---0---------------0---------
D|-------0--0h2---------------2---0---2-------------
G|---0----------------------------------------------
D|--------------------------------------------------
E|----------------------3---------------2-----------

E|--------------------------------------------------
A|----------------0--s3---0-------------------------
D|-------0--0h2---------------2---0---0-------------
G|--------------------------------------------------
D|---------------------------------------3----------
E|----------------------0---------------------------

E|--------------------------------------------------
A|----------------0--s3---0---------------0---------
D|-------0--0h2---------------2---0---2-------------
G|---0----------------------------------------------
D|--------------------------------------------------
E|----------------------3---------------2-----------

E|--------------------------------------------------
A|----------------0--s3---0-----------0-------------
D|-------0--0h2---------------2---2------0----------
G|--------------------------------------------------
D|------------------------------------------3-------
E|----------------------0---------------------------
Outro: C--
E|-------------------------5------------------------
A|---1---3---12----1---3----------------------------
D|--------------------------------------------------
G|--------------------------------------------------
D|-------------------------3------------------------
E|------------9-------------------------------------
Verse II: G-D/F#-Em-C (2X)
E|----------------------------------------------------------------
A|---3---3---0-----------3--p0-------3s5s3-0---------0------------
D|---------------0---------------0-----------0--0h2-----0h2-------
G|-------------------0---------------------------------------0----
D|--------------------------------------------------------------3-
E|-------3--------------2----------------0------------------------

E|----------------------------------------------------------------
A|---3---0-----------3---0-----------3s5s3-0---------0------------
D|-----------0---------------0---------------0--0h2-----0h2-------
G|---------------0-------------------------------------------0----
D|--------------------------------------------------------------3-
E|---3--------------2--------------------0------------------------
Chorus: G-D/F#-Em-C (2X)
E|--------------------------------------------------
A|----------------0--s3---0---------------0---------
D|-------0--0h2---------------2---0---2-------------
G|---0----------------------------------------------
D|--------------------------------------------------
E|----------------------3---------------2-----------

E|--------------------------------------------------
A|----------------0--s3---0-------------------------
D|-------0--0h2---------------2---0---0-------------
G|--------------------------------------------------
D|---------------------------------------3----------
E|----------------------0---------------------------

E|--------------------------------------------------
A|----------------0--s3---0---------------0---------
D|-------0--0h2---------------2---0---2-------------
G|---0----------------------------------------------
D|--------------------------------------------------
E|----------------------3---------------2-----------

E|--------------------------------------------------
A|----------------0--s3---0-----------0-------------
D|-------0--0h2---------------2---2------0----------
G|--------------------------------------------------
D|------------------------------------------3-------
E|----------------------0---------------------------

E|---X---X----X----X----X----X----------------------
A|---1---1---s3---s5---s3---s1----------------------
D|---0---X----X----X----X----X----------------------
G|---2---X----X----X----X----X----------------------
D|---3---3---s5---s7---s5---s3----------------------
E|---X---X----X----X----X----X----------------------
Bridge: C-D/Bm-Am-D (2X)
E|------------------------------------------------------
A|---3---0----------------0---3s5---3-------0-----------
D|----------0h2---0---2-----------------2-------0---2---
G|----------------------------------------------0-------
D|---3--------------------2---------0-------------------
E|------------------------------------------------------

E|------------------------------------------------------
A|--3-3---0----------------0---3s5---3-------0---------3-
D|----------0h2---0---2-----------------2-------2--0--2-
G|----------------------------------------------0-------
D|---3--------------------2---------0-------------------
E|------------------------------------------------------

Chorus: G-D/F#-Em-C (2X)
E|--------------------------------------------------
A|----------------0--s3---0---------------0---------
D|-------0--0h2---------------2---0---2-------------
G|---0----------------------------------------------
D|--------------------------------------------------
E|----------------------3---------------2-----------

E|--------------------------------------------------
A|----------------0--s3---0-------------------------
D|-------0--0h2---------------2---0---0-------------
G|--------------------------------------------------
D|---------------------------------------3----------
E|----------------------0---------------------------

E|--------------------------------------------------
A|----------------0--s3---0---------------0---------
D|-------0--0h2---------------2---0---2-------------
G|---0----------------------------------------------
D|--------------------------------------------------
E|----------------------3---------------2-----------

E|--------------------------------------------------
A|----------------0--s3---0-----------0-------------
D|-------0--0h2---------------2---2------0----------
G|--------------------------------------------------
D|------------------------------------------3-------
E|----------------------0---------------------------
Repeat Chorus
Добавлено: 16.06.2015
Другие материалы по этой песне:
  • Аккорды и текст

Страница создана 16.06.2015
http://primanota.ru/ralph-jay/ikaw-at-ako-chords.htm
Привет, Гость.
Предлагаем пройти революционный курс по гитаре.
Подарок от PrimaNota.Ru, забирай!