PrimaNota.ru - самый крупный в мире бесплатный архив песенных текстов, аккордов, табулатур и нот


Ralph Jay - Forevermore - таба, видео

Регистрация Запомнить меня
Войти через:  Facebook Google Twitter Vk Yandex Mail.ru

Ralph Jay - Forevermore - таба, видео

Печатать
Просмотров: 133
Forevermore - Side A
Fingerstyle Guitar Arrangement by Ralph Jay Triumfo
Cover Video Link: http://youtu.be/UCSMqvnjRj4
Youtube Channel: http://www.youtube.com/user/ralphjay14
For more free tabs, visit my blogsite: http://ralphjaytriumfo.blogspot.com/
*Hello everyone. Tips ko lang, sabayan nyo yung cover video ko habang pinag-aaralan nyo 
ang tab na to para mas
madali nyong makuha yung tempo at plucking patterns. I think 95% accurate naman ang 
pagkakagawa ko nito base
dun sa mismong video ko. Hehe. Goodluck! Kayang kaya nyo yan, practice lang! :) Kung 
gagamitin nyo pala itong
arrangement ko sa video cover nyo, pakilagyan na lang ng credits sakin at pede nyo din 
ako itag para mapanood ko.
Please lang, wag nyo pong pagkakitaan ang tab ko, ito po ay for FREE! Thanks po sa inyong lahat! :)
STANDARD TUNING
Symbols and their meanings:
* = harmonics
~ = strum
s = slide
p = pull-off
x = mute string
PRE-INTRO
*
E|-----------------------0-----------0--------0------|
B|--9-----9--7-----9--7--0-----------0---------------|
G|--9--9-----8--8-----------------2--------2---------|
D|-----------------------------2--------2------------|
A|--7--------6--------------0------------------------|
E|---------------------------------------------------|
 * *
E|-----------------------0-----------0--------0-----------0------|
B|--9-----9--7-----9--0--------------0---------------------------|
G|--9--9-----8--8-----------------2--------2-----------2---------|
D|-----------------------------2--------2-----------2------------|
A|--7--------6--------------0--------------------0---------------|
E|---------------------------------------------------------------|
INTRO
E|------------------0--------------0--------0----|
B|-----------0---------0--------0--------0-------|
G|--------1-----s4--------2--2--------2----------|
D|-----2-----------------------------------------|
A|---------------6--------4----------------------|
E|--0--------------------------------------------|
 * *
E|------------------0--------------0------5------|
B|-----------0---------0--------0------5---------|
G|--------1-----s4--------2--2-------------------|
D|-----2-----------------------------------------|
A|---------------6--------4----------------------|
E|--0--------------------------------------------|
VERSE 1
E|-------------------------0---------------------0-------------------0---|
B|---------------------------0-------------4--7--------2--0--------0-----|
G|--------1--s4--4-------4-----4--------4-----------1------------2-------|
D|-----2---------------6----------7--6-------------------------2---------|
A|------------------6----------------4-----------2-----------0-----------|
E|--0--------------------------------------------------------------------|
E|-----------------------------------------------------------------------|
B|--------0-----------5--4-----------------------------------------------|
G|--1--2-----2--1--------------------------------------------------------|
D|-----------------4--4--------------------------------------------------|
A|--------------------2--2-----------------------------------------------|
E|--------2--------------------------------------------------------------|

E|-------------------------0---------------------0-------------------0--|
B|-----------2---------------0-------------4--7--------2--0--------0----|
G|--------1-----s4-------4-----4--------4-----------1------------2------|
D|-----2---------------6----------7--6-------------------------2--------|
A|------------------6----------------4-----------2-----------0----------|
E|--0-------------------------------------------------------------------|

E|------------------------------|
B|--------0-----------5---4-----|
G|--1--2-----2--1---------------|
D|-----------------4--4---------|
A|--------------------2---3-----|
E|--------2---------------------|
REFRAIN
E|------------------------------------------------------------------|
B|--5------5-------4--5--4--2--2--4--2---0------------0--------0----|
G|-------6------6-----------3---------------4-----------------------|
D|-----6-----6--------------------------------4-----4---4----4---4--|
A|--4----------------------------------2----------0-----------------|
E|-----------------------2---------------------------------4--------|
CHORUS
E|--------0--0--s4-----4--2--4--2--0---------------0--2-----|
B|--0--2--0-----s5--------0--4--------------0---0-----------|
G|--2---------------4---------------------2-----------------|
D|--------------------------------------2-------------------|
A|--------2--------------------------0--------0-------------|
E|--2------------0--------4---------------------------------|

E|--s4--5--4--2--4--2--0---0------0----0--2--4-5----|
B|--s5--------0--4-----------0------0--0-----0--------|
G|----------------------------------------------------|
D|----------------------------------------------------|
A|-----------------------0-------------------2--------|
E|---0--------4-----------------4------2--------------|

E|--7-----7------------------------------------|
B|--------5--10--9--7--9--10--9--5--------5----|
G|-----4------7--------9------------------5----|
D|-------------------------------------7-------|
A|---------------------0------------0----------|
E|--0---------0--------------------------------|

E|--------------2--0--------------------------------|
B|--2--0--------------------------------------------|
G|--------------------------1--2-----1--------------|
D|-----------4-----------2--------------4--2-----4--|
A|--------------------4-----------------------2-----|
E|--------4-----------------------2-----------------|
INTRO
E|------------------0--------------0-----------------|
B|-----------0---------0--------0--------------------|
G|--------1-----s4--------2--2-----------------------|
D|--2--2---------------------------------------------|
A|---------------6--------4-----------0--2--0--------|
E|--0------------------------------------------4--2--|
VERSE 2
E|-------------------------0---------------------0-------------------0--|
B|-----------2p--0-----------0-------------4--7--------2--0--------0----|
G|--------1--------------4-----4--------4-----------1------------2------|
D|-----2---------------6----------7--6-------------------------2--------|
A|------------------6----------------4-----------2-----------0----------|
E|--0-------------------------------------------------------------------|

E|-------------------------------------|
B|--------0-----------5--4-------------|
G|--1--2-----2--1----------------------|
D|-----------------4--4----------------|
A|--------------------2--2-------------|
E|--------2----------------------------|

E|--------0----------------0---------------------0-------------------0---|
B|-----------s4--------------0-------------4--7-----4--2--0--------0-----|
G|--------------s4-------4-----4--------4------------------------2-------|
D|-----2---------------6----------7--6-------------------------2---------|
A|------------------6----------------4-----------2-----------0-----------|
E|--0--------------------------------------------------------------------|
E|-----------------------------------------------------------------------|

B|--------0-----------5---4-----|
G|--1--2-----2--1---------------|
D|-----------------4--4---------|
A|--------------------2---3-----|
E|--------2---------------------|
REFRAIN
E|------------------------------------------------------------------|
B|--5------5-------4--5--4--2--2--4--2---0------------0--------0----|
G|-------6------6-----------3---------------4-----------------------|
D|-----6-----6--------------------------------4-----4---4----4---4--|
A|--4----------------------------------2----------0-----------------|
E|-----------------------2---------------------------------4--------|
CHORUS
E|--------0--0--s4-----4--2--4--2--0---------------0--2--|
B|--0--2--0-----s5--------0--4--------------0---0--------|
G|--2---------------4---------------------2--------------|
D|--------------------------------------2----------------|
A|--------2--------------------------0--------0----------|
E|--2------------0--------4------------------------------|

E|--s4--5--4--2--4--2--0---0------0----0--2--4-5----|
B|--s5--------0--4-----------0------0--0-----0--------|
G|----------------------------------------------------|
D|----------------------------------------------------|
A|-----------------------0-------------------2--------|
E|---0--------4-----------------4------2--------------|

E|--7-----7------------------------------------|
B|--------5--10--9--7--9--10--9--5--------5----|
G|-----4------7--------9------------------5----|
D|-------------------------------------7-------|
A|---------------------0------------0----------|
E|--0---------0--------------------------------|

E|--------------2--0--------------------------------|
B|--2--0--------------------------------------------|
G|--------------------------1--2-----1--------------|
D|-----------4-----------2--------------4--2-----4--|
A|--------------------4-----------------------2-----|
E|--------4-----------------------2-----------------|
OUTRO
E|-------------------s4--2--0--s4------------|
B|--------0----------------------------------|
G|-----1-----s4---2----------------1--2--s4--|
D|--2----------------------------------------|
A|------------6---4--------------------------|
E|--0-----------------0----------------------|
BRIDGE
E|--3------3----2--0------------------------------0--3--5--2------------------|
B|-------3------------3-------3--s3--1--0--1---3--------------3-----1-0-------|
G|-----0--------------------2-------------------------------------0---0-------|
D|------------------------0---------------------------0-----------------------|
A|--3--------3----------2--------------------0--------------------------------|
E|--------------------------------0-----------------------------3-----3--2----|

E|--3--2--3--s5---3--2---------3------s5--3---0---0-0--------------0----0-2--|
B|--3-----------------------3-------------------3---3--0-1--0-1--3----3------|
G|-----------------------2---------0----------------0------------------------|
D|---------------------0----------------------------X--------------0---------|
A|--------------0---------------------------3-------3----0-------------------|
E|--0----------------------------3-------------------------------------------|
INSTRUMENTAL
E|--7~-----0~-----0~-----0~-----0~-----|
B|--X------0~-----0~-----0~-----0~-----|
G|--9~-----9~-----6~-----4~-----2~-----|
D|--9~-----9~-----6~-----4~-----2~-----|
A|--7~-----6~-----4~-----2~-----0~-----|
E|--X------X------X------X------X------|

E|-------------------------------|
B|--------0-----------5--4-------|
G|--1--2-----2--1----------------|
D|-----------------4--4----------|
A|--------------------2--2-------|
E|--------2----------------------|

E|-------------------------0---------------------0--2--4--9--7------7~--|
B|-----------2p--0-----------0-------------4--7---------------------0~--|
G|--------1--------------4-----4--------4------------------------6--6~--|
D|-----2---------------6----------7--6-------------------------7----7~--|
A|------------------6----------------4-----------2-----------0------0~--|
E|--0-------------------------------------------------------------------|

E|--4--5--7--5--4--2------------|
B|-------------------5--4-------|
G|------------------------------|
D|--------4---------------------|
A|-------------------2--3-------|
E|------------------------------|
REFRAIN
 * * * * * * * * *
E|------------------------------------------0~----0~----0~----------|
B|--5------5-------4--5--4--2--2--4--2---0--0~----0~----0~----------|
G|-------6------6---------------------------4~----4~----4~----------|
D|-----6-----6------------------------------4~----4~----4~----------|
A|--4----------------------------------2----2~----0~----X-----------|
E|-----------------------2------------------------------4~----------|
CHORUS
*
E|-----------------------------------0----0~------0--2--|
B|-----------------------------------0----0~---0--------|
G|--4--6--9--11--13--13--11--13--11-------2~------------|
D|--X--X--X--X---X---X---X----------------2~------------|
A|--2--4--7--9---11--11--11------------0--0~------------|
E|---------------0-------11---------------X-------------|

E|--s4--5--4--2--4--2--0---0------0----0--2--4-5----|
B|--s5--------0--4-----------0------0--0-----0--------|
G|----------------------------------------------------|
D|----------------------------------------------------|
A|-----------------------0-------------------2--------|
E|---0--------4-----------------4------2--------------|

E|--7-----7---------------------------------------|
B|--------5--10--9--7--9--10--9--5--------5-------|
G|-----4------7--------9------------------5-------|
D|-------------------------------------7----------|
A|---------------------0------------0-------------|
E|--0---------0-----------------------------------|

E|--------------2--0----------------0-------------|
B|--2--0------------------------------0-------4---|
G|--------------------------1--2--------2---------|
D|-----------4-----------2------------------------|
A|--------------------4--------------------2------|
E|--------4-----------------------2---------------|

E|--------------2--0----------------0-------------|
B|--2--0------------------------------0-------4---|
G|--------------------------1--2--------2---------|
D|-----------4-----------2------------------------|
A|--------------------4--------------------2------|
E|--------4-----------------------2---------------|

E|--------------2--0-------------------------0-----0--2--|
B|--2--0----------------------------0--2--4-----4--------|
G|--------------------------1--2-------------------------|
D|-----------4-----------2-------------------------------|
A|--------------------4----------------------2-----------|
E|--------4-----------------------2----------------------|

E|--7---------------------------0---------|
B|-----7--5----------5----------0-----4---|
G|----------------6--6--------2-----------|
D|-------------6-----------2--------------|
A|----------4----------------------2------|
E|--4-------------------2-----------------|

E|--------------2--0----------------0-------------|
B|--2--0------------------------------0-------4---|
G|--------------------------1--2--------2---------|
D|-----------4-----------2------------------------|
A|--------------------4--------------------2------|
E|--------4-----------------------2---------------|

E|--------------2--0--------------------------------|
B|--2--0--------------------------------------------|
G|--------------------------1--2-----1--------------|
D|-----------4-----------2--------------4--2-----4--|
A|--------------------4-----------------------2-----|
E|--------4-----------------------2-----------------|
OUTRO
E|---------------0--------------0--------0----|
B|--------0---------0--------0--------0-------|
G|-----1-----s4--------2--2--------2----------|
D|--2-----------------------------------------|
A|------------6--------4----------------------|
E|--0-----------------------------------------|
 * * *
E|--5--4--2--0-----2---------0------|
B|--------------0---------0---------|
G|----------------------------------| The end.
D|----------------------------------|
A|--3-----------2-------------------|
E|---------------------0------------|
Добавлено: 16.06.2015
Другие материалы по этой песне:
  • Аккорды и текст

Страница создана 16.06.2015
http://primanota.ru/ralph-jay/forevermore-chords.htm
Привет, Гость.
Предлагаем пройти революционный курс по гитаре.
Подарок от PrimaNota.Ru, забирай!