PrimaNota.ru - самый крупный в мире бесплатный архив песенных текстов, аккордов, табулатур и нот


Raised Fist - Different But The Same - аккорды и текст, видео

Регистрация Запомнить меня
Войти через:  Facebook Google Twitter Vk Yandex Mail.ru

Raised Fist - Different But The Same - аккорды и текст, видео

Печатать
Просмотров: 55
Different But The Same
Raised Fist
Key: Cm

Capo 3 
Verse: Am Am Am Am Em G F G
Chorus: Am C Dm Em

Verse
     Cm        Gm       Bb       Ab        Bb        Bb/Cm\Bb
e|-|---x4----|---------------------------|-1st-----|-2nd-----|-|
B|-|---------|---------------------------|---------|---------|-|
G|-|---------|---------------------------|---------|---------|-|
D|-|-5-5-5-5-|----------3-3-3-3----------|-3-3-3-3-|-3/5\3---|-|
A|-|-3-3-3-3-|-5-5-5-5--1-1-1-1--6-6-6-6-|-1-1-1-1-|-1/3\1---|-|
E|-|---------|-3-3-3-3-----------4-4-4-4-|---------|---------|-|
     1 2 3 4   1 2 3 4  1 2 3 4  1 2 3 4   1 2 3 4   1 2 3 4 

Chorus
     Cm               Eb               Fm               Gm
e|-|--------------------------------------------------------------------|-|
B|-|--------------------------------------------------------------------|-|
G|-|-----------------------------------5-5-5-5-5-5-5-5--7-7-7-7-7-7-7-7-|-|
D|-|-5-5-5-5-5-5-5-5--8-8-8-8-8-8-8-8--3-3-3-3-3-3-3-3--5-5-5-5-5-5-5-5-|-|
A|-|-3-3-3-3-3-3-3-3--6-6-6-6-6-6-6-6-----------------------------------|-|
E|-|--------------------------------------------------------------------|-|
     1 2 3 4 1 2 3 4  1 2 3 4 1 2 3 4  1 2 3 4 1 2 3 4  1 2 3 4 1 2 3 4 

Cm                                 Gm Bb Ab Bb
Can you turn away from the TV everyday?
Cm                                  Gm       Bb   Ab   Bb
Do you go to bed on time and do you work the next day?
Cm                                     Gm    Bb Ab Bb
Can you throw away your cigarettes for good?
Cm                                  Gm      Bb Ab Bb
Do you say I'm sorry every time you should?
Cm                                   (Gm    Bb Ab Bb)
Are you talking shit about anyone you know?
Cm                                      Gm Bb  Ab   Bb
Are you hiding your pornography so that no one will know?

Cm                  Eb
I'm not better than you.
                       Fm
You're not better than me.
                     Gm
You don't have to pretend that you're so fucking divine.
Cm                  Eb
I'm not better than you.
                       Fm
You're not better than me.
                         Gm
Let's stop this silly charade.
                                    Cm
You are what you're always going to be.

Cm                                        Gm       Bb Ab Bb
Do you always treat the one you love with respect?
Cm                                   Gm    Bb   Ab       Bb
Are you gentle and nice against everything even insects?
Cm                        Gm      Bb Ab Bb
Are you always sober on a weekday?
Cm                                               Gm         Bb    Ab     Bb
Are you filling up charity accounts and are your sponsoring green peace?
Cm                                  Gm                 Bb  Ab Bb
If you found a million dollars in a bag would you keep it?
Cm                                    Gm       Bb     Ab       Bb
Do you buy your computer games in the store or do you rip them off?
Gm  Bb       Ab       Bb
You probably rip them off!

Cm
YES!

Cm
I'm not better than you.
Eb
You're not better than me.
Fm                                       Gm
You don't have to pretend that you're so fucking divine.
Cm
Let's stop this silly charade.
Eb
You are what you're always going to be.
Fm
Gm                     Cm
You're not better than me.
Eb Fm
Gm                     Cm
You're not better than me.
Eb
Fm
I'm not better than you.
Gm                     Cm
You're not better than me.
Eb  Fm             Gm
not better than me.

Cm Eb Fm Gm
Добавлено: 29.12.2015
Другие материалы по этой песне:
  • Аккорды и текст

Страница создана 20.04.2012
http://primanota.ru/raised-fist/different-but-the-same-chords.htm
Привет, Гость.
Предлагаем пройти революционный курс по гитаре.
Подарок от PrimaNota.Ru, забирай!