PrimaNota.ru - самый крупный в мире бесплатный архив песенных текстов, аккордов, табулатур и нот


Rainbowdragoneyes - Creatures Ov Deception - таба, видео

Регистрация Запомнить меня
Войти через:  Facebook Google Twitter Vk Yandex Mail.ru

Rainbowdragoneyes - Creatures Ov Deception - таба, видео

Печатать
Просмотров: 53
-------------------------------------------------------------------------------
                             Creatures Ov Deception - Rainbowdragoneyes
-------------------------------------------------------------------------------
Tabbed by: Nick Rudinski
E-mail: nrudinski@gmail.com

Tuning: C Standard - 2 steps down (C F Bb Eb G C)

h - hammer on
p - pull off
/ - slide up
~ - vibrato

Because this is an arrangement of a synth piece use this as a reference for notes rather than exactly how to 
play the solo. The C standard tuning is not necessary it's just what I figured it out in. Just adjust
the notes accordingly to your tuning.

The first section contains a pedal note on the 8th fret and the 3rd section contains a pedal note on the 16th
fret. I removed both of these and double picked the melody because of speed and instrumental issues but feel
free to put them back in.


Solo (1:52)

|---------------------|
|--------------99--11-|
|-88-1010-1111--------|
|---------------------|
|---------------------|
|---------------------|

|-11----9-11-9h11p9----9h11p9---------------------------------|
|----11-------------11--------11-9h11p9-----------------------|
|---------------------------------------11p8------------------|
|--------------------------------------------11p8--------8h11-|
|-------------------------------------------------9----9------|
|---------------------------------------------------11--------|

|-13p9---9-13p9---9--1818-1616---------------------------------------------18-23-|
|------9--------9--------------1919-1818--19--16--------------------15/16--------|
|-------------------------------------------------18--15----15--18---------------|
|--------------------------------------------------------18----------------------|
|--------------------------------------------------------------------------------|
|--------------------------------------------------------------------------------|

|----------17-18-21--18-21-23--16-17-18--16--14h16p14h16---------------------------/14--/13--/11~-|
|-18-19-21-----------------------------------------------14h16p14h16------------------------------|
|--------------------------------------------------------------------13h15p13h15------------------|
|-------------------------------------------------------------------------------------------------|
|-------------------------------------------------------------------------------------------------|
|-------------------------------------------------------------------------------------------------|

Try to figure out something to do on the 11th fret to make it emulate the synth better. 
I'm sure some whammy bar action would do wonders.

Hope you enjoyed it :)
If you have any comments or questions just post here or email me at nrudinski@gmail.com. 
Добавлено: 21.12.2015
Другие материалы по этой песне:
  • Аккорды и текст

Страница создана 21.12.2015
http://primanota.ru/rainbowdragoneyes/creatures-ov-deception-chords.htm
Привет, Гость.
Предлагаем пройти революционный курс по гитаре.
Подарок от PrimaNota.Ru, забирай!