PrimaNota.ru - самый крупный в мире бесплатный архив песенных текстов, аккордов, табулатур и нот


Raimundos - Tora Tora - текст песни, таба, видео

Регистрация Запомнить меня
Войти через:  Facebook Google Twitter Vk Yandex Mail.ru

Raimundos - Tora Tora - текст песни, таба, видео

Печатать
Просмотров: 248
Уроки эстрадного вокала в Санкт-Петербурге
Tora Tora
                          ------------
   Musica:Raimundos
   Tab:Marcos

   Obs.:Afinar 6a corda em D(1 tom abaixo)
        ~~== Vibrar
        xx== Corda/Nota Abafada
         /== Deslizar de uma nota p/outra
 Riff1
 E|------------------------------------------------|
 B|------------------------------------------------|
 G|------------------------------------------------|
 D|------------------------------------------------|
 A|------------1-1-1----------------1-1-1----------|
 D|-0-0--0-0-0-------3-5-0-0--0-0-0-------3-2-0-0--|

 E|-------------------------------------|
 B|-------------------------------------|
 G|-------------------------------------|
 D|-----------------------------------x-|
 A|--------1-1-1----------------------x-|
 D|--0-0-0-------3~~0-0--0-0-0--3-3-2-x-|

 Riff2  A          A# A           A/A#/A        <==1a parte do verso
         xxxxxxxxxx    xxxxxxxxxxx
 Riff2  A# A# A# A A# A# A#    E E E  G G G     <==2a parte do verso
        xxxxxxxxxxxxxxxxxxx    xxxxx  xxxxx

 Riff3  D  D D D  D F F F D F F F  D  D D D  A# C  D   <==refrao

 Riff4(break do meio da musica)
 E|-----------------------------------------------|
 B|-----------------------------------------------|
 G|-----------------------------------------------|
 D|-7---------------------------------------------|
 A|-5--5/8-7--5/8-7--5/8-7~-3-4-5x3x5x3x5x3x5x3x5x|
 D|-O----------------------------xxxxxxxxxxxxxxxxx|

 E|------------------------------|
 B|------------------------------|
 G|------------------------------|
 D|----------------------x0x0x0x-|
 A|----------------------x0x0x0x-|
 D|-5/8-7--5/8-7--5/8-7~-x0x0x0x-|
Добавлено: 21.07.2012
Другие материалы по этой песне:
  • Аккорды и текст

Страница создана 21.07.2012
http://primanota.ru/raimundos/tora-tora-chords.htm
Привет, Гость.
Предлагаем пройти революционный курс по гитаре.
Подарок от PrimaNota.Ru, забирай!