PrimaNota.ru - самый крупный в мире бесплатный архив песенных текстов, аккордов, табулатур и нот


Rahbani Elias - Hopeless Love - таба, видео

Регистрация Запомнить меня
Войти через:  Facebook Google Twitter Vk Yandex Mail.ru

Rahbani Elias - Hopeless Love - таба, видео

Печатать
Просмотров: 112
 Hopeless Love   by "Elias Rahbani"

tabbed by Hani Jabbour

Elias Rahbani is a memeber of a big family of geniuses. He and his nephew ( ziad rahbani )
and his sister in law (fairuz) are music geniuses. It is a shame that they are not very 
known throughout the world. 
They are lebanese, and this small occupied beautiful country cannot offer to these awesome 
figures what they deserve.                                

this is a very romantic piece, i tabbed it directly from the notes so i don't beleive i 
have any mistakes. The tempo is crutial if you want to really catch the melody (isn't it always?!). 
Very very easy to play, can play it perfectly from the first trial.

enjoy

                                                                         
E||----------------------|--3h---3--5-3-2h---2--3-2-|--0----------------|
B||-------------0--1--0--|-------1-----------4------|--0----------------|
G||----------3-----------|-------0-----------4------|--0----------------|
D||----------------------|--------------------------|--2----------------|
A||----------------------|--3-----------2-----------|--2----------------|
E||----------------------|--------------------------|--0----------------|


                                                      
|---2-3-0h-0---------------|----0--------------------|
|----------0----0----0--0--|--3---1h-1---------------|
|*---------0----0----0-----|---------2----2-------0--|
|*-------------------------|---------2----2----4-----|
|--------------------------|--0----------------------|
|---0----------------------|-------------------------|


                                                                              
--------------------------|------------------------|--2-3-0h-0---------------|
--3--1--1--0--3--1--0-----|--0---------------------|---------0----0----0--0--|
-----------------------3--|------------------------|---------0----0----0-----|
--0-----------------------|------------------------|-------------------------|
--------------3-----------|--2----2----2--0--------|-------------------------|
--------------------------|------------------3--2--|--0----------------------|


                                                                               
----0--------------------|--------------------------|------------------------||
--3---1--1---------------|--3--1--0-----0-----------|--------------0---------||
---------2----2-------0--|-----------3-----2--0-----|--------------2--------*||
---------2----2----4-----|--0--------------------1--|--2-----------1--------*||
--0----------------------|--------------2-----------|-----2-----2--2---------||
-------------------------|--------------------------|--0-----3---------------||


                                                                           
-------------------------|---------------2--0-----|--0--------------------|
-------------------1--0--|------------4--------4--|-------0---------1--0--|
-------------------------|--2---------------------|-------0----0----------|
--2----------------------|-------2----------------|-------2----2----------|
-----2-----2-------------|--0---------2-----------|-----------------------|
--0-----3-----0----------|------------------------|--0--------------------|


                                                                         
------------0--2--0-----|--2----2--------------|--3----2--3--2--0h-0----|
---------------------4--|-------0----4----4----|-------1-----1-----1----|
--2---------------------|-------4----4----4----|-------0-----0-----0----|
-------2----------------|----------------------|------------------------|
--0---------2-----------|--2-------------------|--3---------------------|
------------------------|----------------------|------------------------|


                                                                            
--2----0--2--0----------|--0-------0--------0--2--|------------------------|
----------------3--3----|-------3-----1-----------|--4---------------------|
-------2-----2-----2----|-------2-----2--2--2-----|------------------------|
--0---------------------|-------2-----2--2--2-----|------------------------|
------------------------|--0----------------------|--2----2----2--0--------|
------------------------|-------------------------|------------------3--2--|


                                                                               
--2-3-0--0---------------|----0--------------------|--------------------------|
---------0----0----0--0--|--3---1--1---------------|--3--1--1--0--3--1--0-----|
---------0----0----0-----|---------2----2-------0--|-----------------------3--|
-------------------------|---------2----2----4-----|--0-----------------------|
-------------------------|--0----------------------|--------------3-----------|
--0----------------------|-------------------------|--------------------------|


                                                                             
------------------------|--2-3-0h-0---------------|----0--------------------|
--0---------------------|---------0----0----0--0--|--3---1--1---------------|
------------------------|---------0----0----0-----|---------2----2-------0--|
------------------------|-------------------------|---------2----2----4-----|
--2----2----2--0--------|-------------------------|--0----------------------|
------------------3--2--|--0----------------------|-------------------------|


                                                 
--------------------------|--0--------0--------||
--3--1--0-----0-----------|--0--------0--------||
-----------3-----2--0-----|--0--------0--------||
--0--------------------1--|--2-----------------||
--------------2-----------|--2-----------------||
--------------------------|--0-----------------||



     
Добавлено: 22.06.2013
Другие материалы по этой песне:
  • Аккорды и текст

Страница создана 22.06.2013
http://primanota.ru/rahbani-elias/hopeless-love-chords.htm
Привет, Гость.
Предлагаем пройти революционный курс по гитаре.
Подарок от PrimaNota.Ru, забирай!