PrimaNota.ru - самый крупный в мире бесплатный архив песенных текстов, аккордов, табулатур и нот


Rah Rah - Art And A Wife - аккорды и текст, таба, видео

Регистрация Запомнить меня
Войти через:  Facebook Google Twitter Vk Yandex Mail.ru

Rah Rah - Art And A Wife - аккорды и текст, таба, видео

Печатать
Просмотров: 141
Art And A Wife
Rah Rah
Intro Riff
e|---------5---------2---2-2---2-2-----------5-------2---2-2---2---|
B|-----3------3--3---3---3-3---3-3-------3----3--3-- 3---3-3---3---|
G|-2/4---4-----4--- -2---2-2---2-2---2/4---4----4--- 2---2-2---2---|
D|-------------------0---0-0---0-0------------------ 0---0-0---0---|
A|-------------------x---x-x---x-x-------------------x---x-x---x---|
E|-------------------2---2-2---2-2-------------------2---2-2---2---|

VERSE Riff I play
D 
e|--2---2-2---2-2--2-2-2--2---|
B|--3---3-3---3-3--3-3-3--3---|
G|--2---2-2---2-2--2-2-2--2---|
D|--0---0-0---0-0--4-4-4--0---|
A|--x---x-x---x-x--x-x-x--x---|
E|--2---2-2---2-2--2-2-2--2---|

D
I used to have a guitar
though i didnt know what for
Bm                                                      G
and i would play along to some old country songs 
                        D
that shook me to the core 

D
then i got an amp
and i learned to make some noise 
Bm                                                       G              D
and i would play along to some crazy horse songs until it felt right 

Chorus

G
now i just want a life 
full of art and a wife 
full of heart just a life
full of art and a wife 

Riff

D
and then i got a band 
we drove around in a van 
played some shows 
                Bm
made some fans 
                       G
we crushed a few cans 
                      D
drove around in a van 

D
i used to have a song 
i would sing for every girl 
                           Bm
i used to want to make out 
G                       D
make out with every girl 

G
but now i just want a life 
full of art and a wife 
full of heart just a life
full of art and a wife 

Solo
Bm     G      D
Riff

D
I used to have your love 
but you tore it from my hands 
                                 Bm                             G
you tore it from my heart like a soiled work of art
                        D
it aint never going back to how it was 

D
you used to believe in me 
in the gospel that i sung 
                  Bm                                G
in the poetry i wrote like a king behind his moat
                D
I kind of hid away from everyone 

G
but now i just want a life 
full of art and a wife 
full of heart just a life
full of art and a wife 

full of art and a wife 
full of art and a wife 
full of art and a wife
Добавлено: 21.02.2014
Вам также может быть интересно:
Другие материалы по этой песне:
  • Аккорды и текст

Страница создана 01.06.2013
http://primanota.ru/rah-rah/art-and-a-wife-chords.htm
Привет, Гость.
Предлагаем пройти революционный курс по гитаре.
Подарок от PrimaNota.Ru, забирай!