PrimaNota.ru - самый крупный в мире бесплатный архив песенных текстов, аккордов, табулатур и нот


Ragnbone Man - Hard Came The Rain - таба, видео

Регистрация Запомнить меня
Войти через:  Facebook Google Twitter Vk Yandex Mail.ru

Ragnbone Man - Hard Came The Rain - таба, видео

Печатать
Просмотров: 73
-------------------------------------------------------------------------------
                     HARD CAME THE RAIN - Rag 'N' Bone Man
-------------------------------------------------------------------------------
Tabbed by: Ryan 'Titch' Varesi

Tuning: Standard (EADGBe)


VERSE

    Em   
e|-----------------------------------|
B|-----------------------------------|
G|-----------------------------------|
D|-----0h2p0----0----0-------0h2~----|
A|--2----------------------2---------|
E|--0---------3----2----0------------| x4



PRE-CHORUS

      D                               Em     Em7 (Distortion on)
e|------------------------------------0-------0-----|
B|----5-------------------------------8-------3-----|
G|----7-------------------------------9-------0-----|
D|----7-------------------------------9-------x-----|
A|----5-------------------------------7-------2-----|
E|------------------------------------0-------0-----|
 (You pray for ...                it's over ....   )



CHORUS

(Em7)         Em       G       A
Hard Came The Rain ... Rain,
Em                G          A           Em        G        A
   Washed all the love right out of your veins ... veins, 
Em               G          A      C         D         Em7
   I watched the flood roll in and take your hand from mine,
              C    C    D   D
I watched you save your own life.



INTERLUDE
  
    Em
e|------------------------------------------------|
B|------------------------------------------------|
G|------------------------------------------------|
D|-----0h2p0----0----0-----0h2p0----0----0--------|
A|--2---------------------------------------------|
E|--0---------3----2----0---------3----2----0~----|



VERSE

Em                G      A               
We grew life, two broken souls entwined
   
e|----------------------------------------|
B|----------------------------------------|
G|-------7--6--------------------9~-------| 
D|----7--------7--/--5--9--7-----x--------| 
A|----------------------------7--7~-------|
E|----------------------------------------|

Em                G         A           
Same heartbeat, I feel fell out of time

e|----------------------------------------|
B|----------------------------------------|
G|-------7--6--------------------7~-------| 
D|----7--------7--/--5--9--7-----x--------| 
A|----------------------------7--5~-------|
E|----------------------------------------|


PRE-CHORUS

      D                               Em     Em7 (Distortion on)
e|------------------------------------0-------0-----|
B|----5-------------------------------8-------3-----|
G|----7-------------------------------9-------0-----|
D|----7-------------------------------9-------x-----|
A|----5-------------------------------7-------2-----|
E|------------------------------------0-------0-----|
 (You pray for ...                it's over ....   )



CHORUS

(Em7)         Em       G       A
Hard Came The Rain ... Rain,
Em                G          A           Em        G        A
   Washed all the love right out of your veins ... veins, 
Em               G          A      C         D         Em7
   I watched the flood roll in and take your hand from mine,
              C         D
I watched you save your own life.



BRIDGE

e|------------------------------------------|
B|------------------------------------------|
G|------------------------------------------|
D|-----------------5^-----------------------|
A|--7//--5-7-5-7^---------------------------|
E|---------------------7--5//---------------| Repeat as necessary



PRE-CHORUS

      D                               Em     Em7 (Distortion on)
e|------------------------------------0-------0-----|
B|----5-------------------------------8-------3-----|
G|----7-------------------------------9-------0-----|
D|----7-------------------------------9-------x-----|
A|----5-------------------------------7-------2-----|
E|------------------------------------0-------0-----|
 (You pray for ...                it's over ....   )



SOLO (Rhythm is just Chorus section)

e|---------------------------------------|
B|---------------------------------------|
G|- Key of E-----------------------------|
D|- Improvise, Knock yourself out -------|
A|---------------------------------------|
E|---------------------------------------|



CHORUS

(Em7)         Em       G       A
Hard Came The Rain ... Rain,
Em                G          A           Em        G        A
   Washed all the love right out of your veins ... veins, 
Em               G          A      C         D         Em7
   I watched the flood roll in and take your hand from mine,
              C         D
I watched you save your own life.



OUTRO

    Em
e|------------------------------------------------|
B|------------------------------------------------|
G|------------------------------------------------|
D|-----0h2p0----0----0-----0h2p0----0----0--------|
A|--2---------------------------------------------|
E|--0---------3----2----0---------3----2----0-----| x2



On the recording, you can hear the last open note increase and decrease a
tone or two.
To do this, just wind-up and loosen your machine head while the note rings.

Updates on the way,
Enjoy




************************************

| /   slide up
| \   slide down
| h   hammer-on
| p   pull-off
| ~   vibrato
| +   harmonic
| x   Mute note
| b   Bend
| pb  Pre-bend
| br  Bend release
| pbr Pre-bend release
| brb Bend release bend

************************************
Добавлено: 13.05.2016
Вам также может быть интересно:
Другие материалы по этой песне:
  • Аккорды и текст

Страница создана 13.05.2016
http://primanota.ru/ragnbone-man/hard-came-rain-chords.htm
Привет, Гость.
Предлагаем пройти революционный курс по гитаре.
Подарок от PrimaNota.Ru, забирай!