PrimaNota.ru - самый крупный в мире бесплатный архив песенных текстов, аккордов, табулатур и нот


Ragnarok - Tatanga Mani - таба, видео

Регистрация Запомнить меня
Войти через:  Facebook Google Twitter Vk Yandex Mail.ru

Ragnarok - Tatanga Mani - таба, видео

Печатать
Просмотров: 112
-------------------------------------------------------------------------------
                             Tatanga Mani - Ragnarök
-------------------------------------------------------------------------------
Tabbed by: Jonas Svarholt
E-mail: jonas.gitarrlektioner@gmail.com

Tuning: EADGBe

e|---------------------0----------------------5------------------------0-----|
B|-----0---------------0-0-0--1-2-1----------0------------------------0------|
G|-----0-0-0---------2--------------2-0-----5------------------------0-------|
D|---2----------2---2----------------------4----4h5h7-5--4h5p4------4--------|
A|-3----------3----0----------------------x--------------------5---2---------|
E|---------------------------------------5------------------------0----------|

e|---------------------------2---7--7--7h9--7---0----------------------------|
B|---------------------------0---7--7--7----7---0----------------------------|
G|---------------------------0---7--7--7----7---5--------4h5h7-5-4-----------|
D|--------2-2h3-2------------0---6--6--6----6---4------4h5h7-------7-5--4h5p4|
A|-2h3-5-----------5-3-2-----2---7--7--7----7---x--0-4h5h7-------------------|
E|------------------------0------0--0--0----0---5----------------------------|

e|-------0--------5--------0-----8s9----9---9---9-----9----9----9----9-------|
B|------0---5-----5--7---7---5s7-------9---9---9-----9----9----9----9--------|
G|-7---7---------7-----6--------------6---6---6-----6----6----6----6---------|
D|----7---------7----------------------------------9----8----7----6----------|
A|---0---------0-------------------------------------------------------------|
E|---------------------------------------------------------------------------|

e|-----4-----4------------4----------------------------------------------5---|
B|----5-----5-----4h5----5------6----5----5h6----5----------------------0----|
G|---6-----6-----6------6------5----6----5------5---7-5-4h5p4----------5-----|
D|--6-----6-----6------6------7----7----7------7--------------7-5-4---4------|
A|-4-----4-----4------4------0----0----0------0----------------------0-------|
E|---------------------------------------------------------------------------|

e|-8------7--------------------------------------------7-9-9s10-9-7--7--7--7-|
B|-------7-----8----8--7h8--7------------------------7---------------7--7--7-|
G|------7-----9----9---7h9--7----------------------7-----------------7--7--7-|
D|-----6-----7----7----7----7--------------5-7-7s9-------------------9--9--9-|
A|----7-----0----0-----0----0--------5-6-7-----------------------------------|
E|---0-------------------------5-7-8-----------------------------------------|

e|----------------0----------------------------------------------------------|
B|---0-----------0--0-0------6-5---------------------------------------------|
G|---0-0-0------2--------4-5-------------------------------------------------|
D|--2-------2--2-----------------6-------------------------------------------|
A|-3-------3--0--------------------4h5-4h5p4---------------------------------|
E|-------------------------------------------7-5-4--0--0h2h4-4s5-5s7---------|

e|---------------------------5----7s6----9h8-----11-------6---4-4-----6--6---|
B|--------------------------4----6s5----8h7----10--------5----4-4----6---6---|
G|-------------4-5-7-------3----5s4----7h6----9-----to--4----3--3---5----5---|
D|-------4-5-7-------4-4--2----4s3----6h5----8---------3----2------4-----4---|
A|-4-5-7---------------------------------------------------------------------|
E|---------------------------------------------------------------------------|

e|-------------------------------------5--5-----7--7-------------------------|
B|---3----5--5------3--3------5--5----4---4----6---6-------------------------|
G|---2----4--4-----2---2-----4---4---3----3---5----5-------------------------|
D|--2----4---4----2----2----4----4--2--------4-------------------------------|
A|-3----5----5---2-----2---4-----4-------------------------------------------|
E|--------------0---------0--------------------------------------------------|

e|---------------------5-6-8s10--8-7--------------------------4--------------|
B|---------------5-6-8---------------10-8-7-6-5-------------5----------------|
G|---------4-5-7------------------------------------------6------------------|
D|---4-5-7---------------------------------------6s7----7--------------------|
A|----------------------------------------------------0----------------------|
E|---------------------------------------------------------------------------|

Was too tired to trnascribe the ending... sorry...it goes from Emajor to x0767x

Then the pentatonic lick from Eminor.

Two last chords are E7 & A7.


Enjoy it!


************************************

| /   slide up
| \   slide down
| h   hammer-on
| p   pull-off
| ~   vibrato
| +   harmonic
| x   Mute note
| b   Bend
| pb  Pre-bend
| br  Bend release
| pbr Pre-bend release
| brb Bend release bend

************************************
Добавлено: 13.08.2015
Другие материалы по этой песне:
  • Аккорды и текст

Страница создана 13.08.2015
http://primanota.ru/ragnarok/tatanga-mani-chords.htm
Привет, Гость.
Предлагаем пройти революционный курс по гитаре.
Подарок от PrimaNota.Ru, забирай!