PrimaNota.ru - самый крупный в мире бесплатный архив песенных текстов, аккордов, табулатур и нот


Rage Against The Machine - The Narrows - текст песни, таба, бас-таба, видео

Регистрация Запомнить меня
Войти через:  Facebook Google Twitter Vk Yandex Mail.ru

Rage Against The Machine - The Narrows - текст песни, таба, бас-таба, видео

Печатать
Просмотров: 110
Leave a comment below if I'm wrong.

Intro

E:-------------------------------|
B:-------------------------------|
G:-------------------------------|
D:-2-----------------------------|
A:-2-----------------------------|
E:-0-----------------------------|

Let it ring and do it 3 times.

Then Tom goes
E:---------------------------------|
B:---------------------------------|
G:-9--7----------------------------|
D:--------7--5-5-5---2-2-2---------|
A:-7--5----------------------------|
E:--------5--3-3-3---0-0-0---------|

2 times and then plays muted notes and plays it again.

Verses:

E:------------------------------------------------|
B:------------------------------------------------|
G:-----------------------------------------7------|
D:-------9-7-9-------9-7-9----9-7-9---------------|
A:------------------------------------------------|
E:--7-7----------7-----------7--------------------|

The other part of the verse you need a Digitech Whammy Pedal set to 1 Octave if not 2 Octaves Up.

E:----------------------------------------------------|
B:---12-----------------------------------------------|(shift up at same time as Tom)
G:----------------------------------------------------|
D:----------------------------------------------------|
A:----------------------------------------------------|
E:----------------------------------------------------|

Pre Chorus

E:---------------------------------------------------------------------|
B:---------------------------------------------------------------------|
G:-9-9-9---------9-9-9-----------9-9-9-------------9-8-7---------------|
D:---------------------------------------------------------------------|
A:---------7-7-7-----------7-7-7----------7-7-7------------------------|
E:-------------------------------------------------------------------3-|

(Sounds better if you use the Killswitch.)

Chorus

E:-------------------------------------------------------|
B:----------------7-6---7-6------------------------------|
G:---------------7-6---7-6-------------------------------|
D:-------------------------------------------------------|
A:--------7--------------------------7-------------5-----|
E:---0-0----0------------------0-0----0----6-7-----------|

Then go back to verse

The Pre Chorus is changed a little bit but you can figure it out

Then you play the 2nd intro again.

Then the bridge goes.

E:-----------------------------------|
B:-----------------------------------|
G:-----------------------------------|
D:------------------------7----9-----|
A:-----------------------------------|
E:--7--------------------------------|

I can't tab the solo cause i don't even know the tab but if you find out comment below!

Then you play the chorus again and then it ends on.

E:---------------------------------------------------------------|
B:---------------------------------------------------------------|
G:--9--8--7--6--5--4---------------------------------------------|
D:---------------------------2-----------------------------------|
A:--7--6--5--4--3--2-----2---------------------------------------|
E:---------------------------0-----------------------------------|

E:--0---------0--------------5~15------|
B:----0-------0------------------------|
G:------0-----0------------------------|
D:-------------------------------------|
A:-------------------------------------|
E:-------------------------------------|

Thanks for your time have fun playing. Sorry if some tabs are wrong but I think this one 
is the most accurate you'll find. Rock on!
Добавлено: 21.10.2013
Другие материалы по этой песне:

Страница создана 18.05.2012
http://primanota.ru/rage-against-the-machine/the-narrows-chords.htm
Привет, Гость.
Предлагаем пройти революционный курс по гитаре.
Подарок от PrimaNota.Ru, забирай!