PrimaNota.ru - самый крупный в мире бесплатный архив песенных текстов, аккордов, табулатур и нот


Rage Against The Machine - People Of The Sun Live - таба, видео

Регистрация Запомнить меня
Войти через:  Facebook Google Twitter Vk Yandex Mail.ru

Rage Against The Machine - People Of The Sun Live - таба, видео

Печатать
Просмотров: 64
Ok, this is the correct tab of "People of the sun", i
know that because i saw Tom playing
it live, and if you play this correctly, you'll get it.
If you want, send your questions, or comments to:

machine_ofgod@yahoo.com.ar

Facundo.

-------------------------------------------------------
-------------------------------------------------------

First of all, you need an allen wrench, and you're
going to use it this way:

|-------------\
|------------\ \
             | |   
             | |  ----------- This side of your allen
wrench will slide on the string.
             |-|

Set Neck pickup.

Normal tunning (EADGBe)

/  Slide up
\  Slide down
h  Hammer on
~  Vibrato

Intro (Don't touch any freet):
|---------------------------|
|---------------------------|
|---------------------------|
|---------------------------|
|--/----\--/----\--/----\-*-|
|---------------------------|

* mute te strings with your freet hand.

Verse (Put your index finger in the second freet):
|---------------------------|
|---------------------------|
|---------------------------|
|---------------------------|
|--/----\--/----\--/----\-*-|
|---------------------------|
* mute te strings with your freet hand.

Chorus (Don't touch any freet until the hammer on):
|---------------------------------------------------|
|---------------------------------------------------|
|---------------------------------------------------|
|---------------------------------------------------|
|---------------------------------------------------|
|--/--\--/--\--/--\--/--\--/--\--/--\--/--0h1h3-(3)-|

Another verse:
|---------------0----*--|
|---------------0----*--|
|----- ''' -----0----*--|
|----'-----'----0----*--|
|---'-------'-----------|
|--5---------5----------|
    Whammy B
* mute with your freet hand.

Fills (Listen to the song):
|----------|-----------|
|----------|-----------|
|----------|-----------|
|----------|-----------|
|--19-\-2--|-----------|
|----------|--0/18~~~--|
               (22) If you like it.

Listen to the song to know the structure.
I hope you like it, because this is the right way to
play the song.
Enjoy!

Facu.
     
Добавлено: 09.08.2013
Другие материалы по этой песне:
  • Аккорды и текст

Страница создана 09.08.2013
http://primanota.ru/rage-against-the-machine/people-of-the-sun-live-chords.htm
Привет, Гость.
Предлагаем пройти революционный курс по гитаре.
Подарок от PrimaNota.Ru, забирай!