PrimaNota.ru - самый крупный в мире бесплатный архив песенных текстов, аккордов, табулатур и нот


Rage Against The Machine - Housin - аккорды и текст, таба, бас-таба, видео

Регистрация Запомнить меня
Войти через:  Facebook Google Twitter Vk Yandex Mail.ru

Rage Against The Machine - Housin - аккорды и текст, таба, бас-таба, видео

Печатать
Просмотров: 173
Housin
Rage Against The Machine
Song:Housin'
Artist:Rage Against The Machine
Album:Renegades
Tabbed by:Mark McCormack @ kaneda_450@yahoo.com

this is my first tab and i have been playing for about
six months. it's all my own work and i'm pretty sure
it's all correct. i read TRAVIS ELSTON's tab and found
some stuff wrong with it so i wrote this up. i figured
all this stuff out through trial and error using
travis elston's tab as a foundation. this tab
basically has corrected tuning, the verse riff, and
some corrected chorus stuff. travis had the chorus1
part that i used and gave me a platform, so to speak,
to work off of on the rest of the chorus.

dropped 'D' tuning (bring the low 'E' down into
harmony w/ the 'D' string)
/=slide up  =slide down  h=hammer on  p=pull off

	verse(play with whammy and wah peddles)(it sounds fine w/out them)
E|--------------------------------------------------------------------------|
B|--------------------------------------------------------------------------|
G|--------------------------------------------------------------------------|
D|-2-5--2-2-2-5---2-5--2-2-2-5----------------------------------------------|
A|--------------------------------------------------------------------------|
D|--------------------------------------------------------------------------|

	chorus1(cuz i'm housin)(play each ppower-chordwith
the syllables hou-sin)
E|--------------------------------------------------------------------------|
B|--------------------------------------------------------------------------|
G|--------------------------------------------------------------------------|
D|--------------------------------------------------------------------------|
A|-2-2----------------------------------------------------------------------|
D|-2-2----------------------------------------------------------------------|

	chorus2(listen to the song to get the rrhythm
E|--------------------------------------------------------------------------|
B|--------------------------------------------------------------------------|
G|-------------------0------------------------------------------------------|
D|--------------------------------------------------------------------------|
A|-0-2-0-2-0-2-0-2p0--------------------------------------------------------|
D|-0-2-0-2-0-2-0-2p0--------------------------------------------------------|

	chorus3(i'm about 80-90% sure that this is right)
E|--------------------------------------------------------------------------|
B|--------------------------------------------------------------------------|
G|--------------------------------------------------------------------------|
D|---------5-5p3-1p0--------------------------------------------------------|
A|-2-2-0h2------------------------------------------------------------------|
D|-2-2-0h2------------------------------------------------------------------|

	i'm jes gonna leave it up to you to figure out how
many times and when to play each phrase, because i'm
lazy. i have no idea how to play the solo and probably
wont figure it out because i have neither a whammy or
a wah peddle because they cost too damn much and i am
broke beyond reason. it sounds similar to the solo in
bulls on parade(pocket full of shells) in which tom
touches the jack to the bridge, just a helpful
suggestion. and i almost forgot, thanks out to travis
elston for givin me the basics for this song, wouldn't
have happened w/out you bro.
     
Добавлено: 24.06.2013
Другие материалы по этой песне:
  • Аккорды и текст

Страница создана 16.03.2012
http://primanota.ru/rage-against-the-machine/housin-chords.htm
Привет, Гость.
Предлагаем пройти революционный курс по гитаре.
Подарок от PrimaNota.Ru, забирай!