PrimaNota.ru - самый крупный в мире бесплатный архив песенных текстов, аккордов, табулатур и нот


Rafael Lopez - Ive Fallen For You - таба, видео

Регистрация Запомнить меня
Войти через:  Facebook Google Twitter Vk Yandex Mail.ru

Rafael Lopez - Ive Fallen For You - таба, видео

Печатать
Просмотров: 96
-------------------------------------------------------------------------------
                             I've Fallen For You - Rafael Lopez
-------------------------------------------------------------------------------
Tabbed by:
E-mail:


Tuning:normal
Capo: No

e|--1--1------2--3--2--------------------------------------------------------|
B|--1--1------3--3--3-----1------1-----1-------------------------------------|
G|------------2--2--2--------------------------------------------------------|
D|------------------------2------2-----2-------------------------------------| x4 (This is basically the 
A|--2--2------------------3------3-----3-------------------------------------|     chords of the whole song)
E|--3--3---------------------------------------------------------------------|


this is the Half of the Song

e|----10--10--10--10--10--10--10--10------8--8-----1-------1-1---------------|
B|----10--10--10--10--10--10--10--10------8--8-----1-------1-1---------------|
G|---------------------------------------------------------------------------|
D|---------------------------------------------------------------------------|
A|----9----9---9---9---9---9---9---9------7--7-----2-------2-2---------------|
E|----10--10--10--10--10--10--10--10------8--8-----3-------3-3---------------|

Solo:

e|---3---3---2---3---2---0--0----0--2---3---3---3/5----3--2--3--2--0--0---0--|
B|---------------------------------------------------------------------------|
G|---------------------------------------------------------------------------|
D|---------------------------------------------------------------------------|
A|---------------------------------------------------------------------------|
E|---------------------------------------------------------------------------|

e|---2--3-3---5-5-5/8--7---5---3-5-3---2h3--3---2---3---2--0--0---0----------|
B|---------------------------------------------------------------------------|
G|---------------------------------------------------------------------------|
D|---------------------------------------------------------------------------|
A|---------------------------------------------------------------------------|
E|---------------------------------------------------------------------------|

e|--7--8--10-----8--7--8--7----5--5/7----7--8---10---8--10--10/12---10-------|
B|---------------------------------------------------------------------------|
G|---------------------------------------------------------------------------|
D|---------------------------------------------------------------------------|
A|---------------------------------------------------------------------------|
E|---------------------------------------------------------------------------|

e|--8--7--5/7----7--8--10--8--7---5----3---2--0---2--3--3/5---5--7--5--3---0-|
B|---------------------------------------------------------------------------|
G|---------------------------------------------------------------------------|
D|---------------------------------------------------------------------------|
A|---------------------------------------------------------------------------|
E|-------------------------------------------------------------------------0-|


************************************

| /   slide up
| \   slide down
| h   hammer-on
| p   pull-off
| ~   vibrato
| +   harmonic
| x   Mute note
| b   Bend
| pb  Pre-bend
| br  Bend release
| pbr Pre-bend release
| brb Bend release bend

************************************
Добавлено: 28.07.2015
Другие материалы по этой песне:
  • Аккорды и текст

Страница создана 28.07.2015
http://primanota.ru/rafael-lopez/ive-fallen-for-you-chords.htm
Привет, Гость.
Предлагаем пройти революционный курс по гитаре.
Подарок от PrimaNota.Ru, забирай!