PrimaNota.ru - самый крупный в мире бесплатный архив песенных текстов, аккордов, табулатур и нот


Radkey - Parade It - таба, видео

Регистрация Запомнить меня
Войти через:  Facebook Google Twitter Vk Yandex Mail.ru

Radkey - Parade It - таба, видео

Печатать
Просмотров: 58
-------------------------------------------------------------------------------
                             Parade It - Radkey
-------------------------------------------------------------------------------
This is my first tab, i hope you like it. Just listen to the song and use this as a little help, its very easy
to play. Everything in Verse is Palm Muted, except for the marked with "x" parts, which are played in normal 
volume.


Tuning: Standard

Verse:
                                     x  x                                     x  x
e|----------------------------------------------------------------------------------|
B|----------------------------------------------------------------------------------|
G|-8888888888888888-------------------------8888888888888888------------------------|
D|-8888888888888888--66666666--4444--4--3---8888888888888888--66666666--4444--4--3--|
A|-6666666666666666--66666666--4444--4--3---6666666666666666--66666666--4444--4--3--|
E|-------------------44444444--2222--2--1---------------------44444444--2222--2--1--|

                                     x  x                              x[Listen to the song - release palm mute]
e|----------------------------------------------------------------------------------|
B|----------------------------------------------------------------------------------|
G|-8888888888888888-------------------------8888888888888888------------------------|
D|-8888888888888888--66666666--4444--4--3---8888888888888888--66666666--4444--4--3--|
A|-6666666666666666--66666666--4444--4--3---6666666666666666--66666666--4444--4--3--|
E|-------------------44444444--2222--2--1---------------------44444444--2222--2--1--|

Refrain:
4x
e|--------------------------------------|
B|--------------------------------------|
G|-888888888888888----------------------|
D|-888888888888888--44444444--66666666--|
A|-666666666666666--44444444--66666666--|
E|------------------22222222--44444444--|

Solo:

e|--------------------------------------------------------------------------------|
B|--------------------------------------------------------------------------------|
G|------11-11------------------------------------------------------------11-11----|
D|--13---------13--11-13-11-------------------11---------------11----13--------13-|
A|--------------------------13-11-13-13-11-13----13br14--11-13----13--------------|
E|--------------------------------------------------------------------------------|

e|--------------------------------------------------------------------------------|
B|--------------------------------------------------------------------------------|
G|-11-13-11-13-11-13b15-15-15br13p11----11-13-11---------------11-11--------------|
D|-----------------------------------13------------13-11----13--------13----------|
A|-------------------------------------------------------13-----------------------|
E|--------------------------------------------------------------------------------|

e|--------------------------------------------------------------------------------|
B|--------------------------------------------------------------------------------|
G|--------------------------------------------------------------------------------|
D|-11-13-11-----------------------------------------------------------------------|
A|----------13-11-13--11--9--8--11--9--8------------------------------------------|
E|----------------------------------------9--11-----------------------------------|

************************************

| p   pull-off
| b   Bend
| br  Bend release

************************************
Добавлено: 23.06.2016
Другие материалы по этой песне:
  • Аккорды и текст

Страница создана 23.06.2016
http://primanota.ru/radkey/parade-it-chords.htm
Привет, Гость.
Предлагаем пройти революционный курс по гитаре.
Подарок от PrimaNota.Ru, забирай!