PrimaNota.ru - самый крупный в мире бесплатный архив песенных текстов, аккордов, табулатур и нот


Radish - Little Pink Stars - текст песни, таба, видео

Регистрация Запомнить меня
Войти через:  Facebook Google Twitter Vk Yandex Mail.ru

Radish - Little Pink Stars - текст песни, таба, видео

Печатать
Просмотров: 80
Уроки эстрадного вокала в Санкт-Петербурге


Tabbed by:anitaoomeer@hotmail.com
Album: Little Pink Stars


this needs to played along with the song to make real sense, but hey, i tried.


Intro / Chorus


e|----------||----------------------------------------x-x-x-----------------||
B|----------||----------------------------------------x-x-x-----------------||
G|-55555555-||:----------9-9---5-5---------------9-9--x-x-x---5------------:||r
D|-55555555-||:5---5-9---9-9---5-5---5-5---5-9---9-9--x-x-x---5--5---------:||p
A|-33333333-||-5---5-9---7-7---3-3---5-5---5-9---7-7--x-x-x---3--5----------||t
E|----------||-3---3-7---------------3-3---3-7--------x-x-x------3----------||
  	            		                      rake                 					            				    3rd fret

e|---------|-----------------------------------------------------------------|
B|---------|-----------------------------------------------------------------|
G|-4-b2-4--|-----------------------------------------------------------------|
D|-4-b4-4--|-----------------------------------------------------------------|
A|-2-b4-2--|-----------------------------------------------------------------|
E|---------|-----------------------------------------------------------------|


Verse
Guitar 1
e|--------------------------------------------------------|------------------|
B|--------------------------2-----------------------------|------------------|
G|--------------------------2--2----2------5-------4------|---repeat--5-5----|
D|-2-----2------5-----5-----0---0-----0------5--------4---|-----------5-5----|
A|-2---2---2----5---5---5---------0------3-------2--------|-----------3-3----|
E|-0-0-------0--3--3-----3--------------------------------|------------------|


Guitar 2
e|-------------------------------------------|-------------------------------|
B|-------------------------------------------|-------------------------------|
G|-0-0-0---------------2-2-2-4--4-5----------|---repeat--5-5-----------------|
D|-2-2-2-4--4-5-5-5-5--2-2-2-4--4-5--5-5-4---|-----------5-5-----------------|
A|-2-2-2-4--4-5-5-5-5--0-0-0-2--2-3--5-5-4---|-----------3-3-----------------|
E|-0-0-0-2--2-3-3-3-3----------------3-3-2---|-------------------------------|



Pre Chorus
   Dm                  Em		      Dm	             Em
e|---------------------|---------------------|---------------------|---------|
B|-3--3-3--3-3--3-3--3-|-0--0-0--0-0--0-0--0-|-3--3-3--3-3--3-3--3-|-0-------|
G|-2--2-2--2-2--2-2--2-|-0--0-0--0-0--0-0--0-|-2--2-2--2-2--2-2--2-|-0-------|
D|-0--0-0--0-0--0-0--0-|-2--2-2--2-2--2-2--2-|-0--0-0--0-0--0-0--0-|-2-------|
A|---------------------|-2--2-2--2-2--2-2--2-|---------------------|-2-------|
E|---------------------|---------------------|---------------------|---------|
    seems to me the    |  off		     |	 giving or taking  | stars
    whole things                                 little pink



Solo (guitar2 plays verse chords under solo)

e|-10/12-|-10/12-|-10--12-12-12p10-------------|----10/12--|--10--12--------|
B|-------|-------|----------------12p11--------|-----------|----------------|
 G|-------|-------|---------------------12p11-9-|--9--------|----------------|
D|-------|-------|-----------------------------|-----------|----------------|
A|-------|-------|-----------------------------|-----------|----------------|
E|-------|-------|-----------------------------|-----------|----------------|

e|-10---b12--b14--b15--b17-||------------------|---------------------------||
B|-------------------------||------------------|-12p10p8-----12p10p8-------||
G|-------------------------||:-------7-------7-|---------9-----------9----:||
D|-------------------------||:7--7h9-----7h9---|--------------------------:||rpt
A|-------------------------||------------------|---------------------------||x3
E|-------------------------||------------------|---------------------------||

e|------12------12|-----15-----15-|--1715--|--------------|----------------|
B|12-12---12-12---|12-12--12-12---|---------|--------------|----------------|
G|----------------|---------------|---------|--------------|----------------|
D|----------------|---------------|---------|--------------|----5--5--5h7---|
A|----------------|---------------|---------|--7--7--7h9---|--9-------------|
E|----------------|---------------|---------|--------------|----------------|

e|-----------------|-----------------|-----------------|--------------------|
B|-----------------|-----------------|-----------------|--------------------|
G|---------9-----9-|-----9----b9---9-|-7/9--9--9--9/12-|12-12-12/14--14--14-|
D|--7--7h9---7h9---|-7h9-------------|-----------------|--------------------|
A|-----------------|-----------------|-----------------|--------------------|
E|-----------------|-----------------|-----------------|--------------------|

e|------12-------12-|-------12--------12-|-------12-------------|----------|
B|10h12----10h12----|-10h12-----10h12----|-10h12------------3---|----------|
G|------------------|--------------------|-----------0--2h4-----|----------|
D|------------------|--------------------|----------------------|----------|
A|------------------|--------------------|----------------------|----------|
E|------------------|--------------------|----------------------|----------|
							       seems to me...

e|----0---0--0/0-0-0-0-0-0-|-------------|----------------------------------|
B|----5---3--3/5-5-5-5-5-5-|--------3--3-|----------------------------------|
G|----4---2--2/4-4-4-4-4-4-|-2--2h4----4-|----------------------------------|
D|-------------------------|-------------|-0--0--0--5---4--4---2--2--00--0--|
A|-------------------------|-------------|----------------------------------|
E|-------------------------|-------------|----------------------------------|
 ....off			    little pink stars

back to chorus


outro

e|-x-x-x-x-x-x-x-x-x-x-x-x-x-x-x-x-------------------------------|
B|-x-x-x-x-x-x-x-x-x-x-x-x-x-x-x-x-------------------------------|
G|-x-x-x-x-x-x-x-x-9-9-9-9-5-5-5-5--4-4-4-----5--5--5--5---------|
D|-5-5-5-5-9-9-9-9-9-9-9-9-3-3-3-3--4-4-4--2--5--5--5--5-5--5----|
A|-5-5-5-5-7-7-7-7-7-7-7-7-3-3-3-3--2-2-2--2--3--3--3--3-5--5----|
E|-3-3-3-3-7-7-7-7-0-0-0-0-0-0-0-0---------0-------------3--3----|

| /  slide up
|   slide down
| h  hammer-on
| b  bend
| p  pull-off
| ~  vibrato
| +  harmonic
| x  Mute note


Добавлено: 31.01.2014
Другие материалы по этой песне:
  • Аккорды и текст

Страница создана 29.03.2012
http://primanota.ru/radish/little-pink-stars-chords.htm
Привет, Гость.
Предлагаем пройти революционный курс по гитаре.
Подарок от PrimaNota.Ru, забирай!