PrimaNota.ru - самый крупный в мире бесплатный архив песенных текстов, аккордов, табулатур и нот


Radiohead - Weird Fishes - таба, видео

Регистрация Запомнить меня
Войти через:  Facebook Google Twitter Vk Yandex Mail.ru

Radiohead - Weird Fishes - таба, видео

Печатать
Просмотров: 207
Уроки эстрадного вокала в Санкт-Петербурге
Weird Fishes    Radiohead (Matthew Haley YouTube Version)

   Em7     F#m7    Aadd2       GM7add6
---0-------0---------0-----------0-------------|
---0-------0---------0-----------0-------------|
---7-------9---------14--------- 11------------|
---5-------7---------11----------9-------------|
---7-------9---------12----------10------------|
---x-------x---------x-----------0-------------|

In the deepest ocean    Bottom of the sea
Your eyes               They turn me
Why should I stay here  Why should I stay


   Em7     F#m7     E6sus4      GM7add6
---0-------0--------0------------0-------------|
---0-------0--------0------------0-------------|
---7-------9--------6------------11------------|
---5-------7--------7------------9-------------|
---7-------9--------7------------10------------|
---x-------x--------0------------0-------------|

Would I be crazy not to follow          Follow where you lead
Your eyes                               They turn me
Turn me on to phantoms -yeah-           I follow to the edge...of the Earth...and fall off
Everybody leaves-yeah--                 If they get the chance...oh...This is my chance


   E6sus4      Bm/F#                                        E6sus4        [Run of 3rds]          Bm/F#
---0-----------2-----2nd line add the run of 3rds ----------0--------------x----x---x------------2--|
---0-----------3--------------------------------------------0--------------x----x---x------------3--|
---6-----------4--------------------------------------------6--------------9----7---6------------4--|
---7-----------4--------------------------------------------7--------------11---9---7------------4--|
---7-----------2--alternate bass between E/A string---------7--------------x----x---x------------2--|
---0-----------2------"------------"---------"-----"--------0--------------x----x---x------------2--|

I get eaten by the worms                And weird fishes
Picked over by the worms                And weird fishes


   E6sus4     G
---0-----------3--------|
---0-----------0--------|
---6-----------0--------|
---7-----------0--------|
---7-----------2--------|
---0-----------3--------|

Weird Fishes      Weird Fishes

Bm            Csus2          Bm             Aadd4         Gsus2
x-------------x--------------0--------------0-------------0-|
x-------------x--------------0--------------0-------------0-|
7-------------5--------------7--------------6-------------2-|
0-------------0--------------0--------------0-------------0-|
x-------------x--------------0--------------0-------------0-|
7-------------8--------------7--------------5-------------3-|

I hit the bottom hit the bottom and escape, escape
And I... hit the bottom hit the bottom...escape
And I...hit the bottom, hit the bottom, and I escape, I escape
Добавлено: 05.04.2015
Другие материалы по этой песне:
  • Аккорды и текст

Страница создана 05.04.2015
http://primanota.ru/radiohead/weird-fishes-chords.htm
Привет, Гость.
Предлагаем пройти революционный курс по гитаре.
Подарок от PrimaNota.Ru, забирай!