PrimaNota.ru - самый крупный в мире бесплатный архив песенных текстов, аккордов, табулатур и нот


Radiohead - Talk Show Host - аккорды и текст, таба, бас-таба, видео

Регистрация Запомнить меня
Войти через:  Facebook Google Twitter Vk Yandex Mail.ru

Radiohead - Talk Show Host - аккорды и текст, таба, бас-таба, видео

Печатать
Просмотров: 895
Talk Show Host
Radiohead
riff 1:
e|-----------|
B|--8-8-8-8--|
G|--8-8-7-5--|
D|-----------|
A|-----------|
E|-----------|

riff 2:
e|-----------|
B|--------4--|
G|-----------|
D|--6\5------|
A|-----------|
E|-----------|


 Intro w/Riff 1 x2:

  --|-------|-------|-------|-------|
  --|-------|-------|-------|-------|
  --|-------|-------|-------|-------|
  --|-------|-------|-------|-------|
  1-|3------|-----1-|3------|-------|
  --|-------|-------|-------|-------|

(Riff 1 x4 w/No Chords)

I want to
I want to be someone else or I'll explode
Floating upon this surface for the

(Riff 2 x2)

Ab5  (F5)

birds
Ab5  (F5)

The birds

(Riff 1 x2)

C5

The birds

(Riff 1 x4)

C5
You want me?
Fucking well come and find me

I'll be waiting
With a gun and a pack of sandwiches
(Riff 2 x2)

       Ab5    (F5)
And nothing

Ab5    (F5)
Nothing

(Riff 1 x1)

C5
Nothing

Eb  G


(Riff 1 x2)

C5
Nothing

(Riff 1 x4)

C5
You want me?
Well come and break the door down
You want me?
Fucking come and break the door down

(Riff 2 x2)

       Ab5    (F5)
I'm ready
Ab5    (F5)

I'm ready

(Riff 1 x1)

C5

I'm ready

Eb  G  F  Fm


(Riff 1 x2)

C5
I'm ready

Eb  G  F  Fm


(Riff 1 x4)

C5
I'm ready

(Riff 2 x2)

Ab5    (F5)

Ab5    (F5)

(Riff 1 x2)

C5

(Riff 2 x2)

Ab5    (F5)

Ab5    (F5)

(Riff 1 x2)

C5
Добавлено: 01.04.2012
Другие материалы по этой песне:

Страница создана 24.03.2012
http://primanota.ru/radiohead/talk-show-host-chords.htm
Привет, Гость.
Предлагаем пройти революционный курс по гитаре.
Подарок от PrimaNota.Ru, забирай!