PrimaNota.ru - самый крупный в мире бесплатный архив песенных текстов, аккордов, табулатур и нот


Radiohead - Paranoid android live - таба, видео

Регистрация Запомнить меня
Войти через:  Facebook Google Twitter Vk Yandex Mail.ru

Radiohead - Paranoid android live - таба, видео

Печатать
Просмотров: 173
Уроки эстрадного вокала в Санкт-Петербурге



Date: Sun, 30 Oct 2005 20:14:11 -0000
From: anonymous coward 
Subject: r/radiohead/paranoid_android_live_unplugged.tab

Paranoid Android (Unplugged) By Wizzard
I claim that This is all my own work (slight contribution by Radiohead;)


This song consists of 4 main parts.  When you have mastered them all,
they can be strung together to play unacompanied. (this does not include
the solos as there are none on the unplugged version - just thom yorke
singing and playing guitar)


MAIN INTRO amp; VERSE
e------------------------------------
B---88--------88--------88-----------
G-----8-8-------8-8-------8-8--------
D------------------------------------
A----------------------8-8-8-00------
E--8-8-8-----6-6-6-------------66----
    Please    could you stop......

e------------------------------------------
B------33--------33--------33--------------
G--------3-3-------3-3-------3-32-002------
D------------------------------------------
A---------------0-0-0-----1-1-1------------
E-----3-3-3--------------------------------
       trying to get some rest.......




e-------0---0----0---0----0---0-----0---0----0---0----0---0----0---0---
B------3-3-3-3--3-3-3-3--3-3-3-3---3-3-3-3--3-3-3-3--3-3-3-3--3-3-3-3--
G-----3---3---32---2---21---1---1-3---3---32---2---21---1---11---1---1-
D----------------------------------------------------------------------
A----------------------------------------------------------------------
E----------------------------------------------------------------------
             Whats this....		        

MAIN RIFF
e-----------
B-----------
G-----------
D-----------
A----3----35
E--55-5444-- x4

    Ambition makes you..

CHORD PROGRESSION AFTER MAIN RIFF AND THROUGH GUITAR SOLOS
e------------------------------------------------------------1-
B------------------------------------------------------------1-
G------------------------------------------------------------2-
D------------------------------------------------------------3-
A-----------10-10-6688--10-10-6688--10-10-6688--10-10-10-987-3-
E-----------8--8--4466--8--8--4466--8--8--4466--8--8--8--765-1-let ring.

RAIN DOWN CHORDS
Strumming pattern is down,skip,down,down,up - 4/4 (on each chord)
1(2)1 hammer on/off

   Cm,G,G/Bb,A,Dm,A,Dm,,Bb,,Gm,F,E,     A
e-3--3-3----0-1--0-1--1--1--1--3--1-0---0--0---0--
B-1--3-3----2-3--2-3--1--3--1--3--1-0---0--2(3)2--
G-0--0-0----2-2--2-2--2--3--2--3--2-1(2)1--2---2--
D-1--0-0----2-0--2-0--x--3--x--5--3-2---2--2---2--
A-x--2-1----0-x--0-x--x--x--x--5--3-2---2--0---0--
E-x--3-x----x-x--x-x--x--x--x--3--1-0---0--x---x--
   Rain.....
Repeat until end then back to main riff and chords to end

My first attempt at transcription, taken from paranoid
  android unplugged bootleg
here.please@virgin.net


Добавлено: 27.12.2013
Другие материалы по этой песне:
  • Аккорды и текст

Страница создана 27.12.2013
http://primanota.ru/radiohead/paranoid-android-live-chords.htm
Привет, Гость.
Предлагаем пройти революционный курс по гитаре.
Подарок от PrimaNota.Ru, забирай!